Song name
# A B C D E F G H I J K L M N O P Q R S T U V W X Y Z

Screeching Weasel - Linger tab

-------------------------------------------------------------------------------
                         LINGER - Screeching Weasel 
-------------------------------------------------------------------------------

By: bRuCe sExX civilian88@prodigy.net 

verses: A, E, G, D (all palm muted) 

VERSE:         each x's 4 PM'D (first time)
e|-----------------------------------------------------------| 
B|-----------------------------------------------------------| 
G|------------9-------------7--------------------------------| 
D|-----7------9------5------7--------------------------------| 
A|-----7------7------5------5--------------------------------| 
E|-----5-------------3---------------------------------------| 

Chorus part A, E, G, D (no palm muting needed, so you can rest your hand :) ) 

CHORUS: 
e|-----------------------------------------------------------| 
B|-----------------------------------------------------------| 
G|------------9-------------7--------------------------------| 
D|-----7------9------5------7--------------------------------| 
A|-----7------7------5------5--------------------------------| 
E|-----5-------------3---------------------------------------| 
That's pretty much the whole song. Pretty easy to figure out and play. Except 
Any questions, feel free to send email.

Solo:
e|---------------------------------|
B|---------------------------------|
G|---------------------------------|
D|-----7/14---14/9---9-12---12/7---|
A|---------------------------------|
E|---------------------------------|
Tap to rate this tab
# A B C D E F G H I J K L M N O P Q R S T U V W X Y Z