Song name
# A B C D E F G H I J K L M N O P Q R S T U V W X Y Z

Screeching Weasel - American Dream tab

Screeching Weasel - The American Dream
Submitted By: banglerdesh 23
Album:Kill the Musicians 
Track:24
Tuning:Normal

This song is so short that I'm just dividing it into "parts" instead
of veses, choruses, ect.

Part 1
    D5      F5       D#5                x4
e------------------------------------|
B------------------------------------|
G---7-7-7-7-11111111-8-8-8-8-8-8-8-8-|
D---7-7-7-7-11111111-8-8-8-8-8-8-8-8-|
A---5-5-5-5-8-8-8-8--6-6-6-6-6-6-6-6-|
E------------------------------------|

Part 2
    G5      D5      D#5                 x1
e--------------------------------------------|
B--------------------------------------------|
G-----------7-7-7-7-8-8-8-8-8-8-8-8-7-7-7-7--|
D---5-5-5-5-7-7-7-7-8-8-8-8-8-8-8-8-7-7-7-7--|
A---5-5-5-5-5-5-5-5-6-6-6-6-6-6-6-6-5-5-5-5--|
E---3-3-3-3----------------------------------|

Then repeat part 1 four times and end on D#5.

That's it.
Tap to rate this tab
# A B C D E F G H I J K L M N O P Q R S T U V W X Y Z