Song name
# A B C D E F G H I J K L M N O P Q R S T U V W X Y Z

Screeching Weasel - Suspect Device tab

Tabbed By Matt Shepard
song: Suspect Device

Intro riff :
| --------------------------------- |
| --------------------------------- |
| --------9-9-9-9---9-9-9--9--9-9-- |
| --------9-9-9-9---9-9-9--9--9-9-- |
| --------7-7-7-7---7-7-7--7--7-7-- |
| --7--9--------------------------- |

Verse : x2
| ----------------------------------- |
| ----------------------------------- |
| --------9--------9--7-----9--7----- |
| --9--7--9--9--7--9--7--7--9--7--7-- |
| --9--7--7--9--7--7--5--7--7--5--7-- |
| --7--5-----7--5--------5--------5-- |

Chorus :
| ----------------------- | 
| ----------------------- |
| --9--------9--------9-- |
| --9--9--7--9--9--7--9-- |
| --7--9--7--7--9--7--7-- |
| -----7--5-----7--5----- |
Tap to rate this tab
 
# A B C D E F G H I J K L M N O P Q R S T U V W X Y Z