Song name
# A B C D E F G H I J K L M N O P Q R S T U V W X Y Z

Screeching Weasel - Degenerate tab

SCREECHING WEASEL:
Degenerate
How to Make Enemis and Irritate People ( 1994 )


intro/verse:

youre basically playing power chords here.. but with hitting strings, so its fast notes

-----------------------------------|
-----------------------------------|
---10----------------------8-8-8-8-|
-10--10-----10-------8-----8-8---8-|
8--------10---10---8-8-8---6-----6-|
--------8----------6-6-6-----------|


CHORUS:  (palm mute throughout)

----------------------------------------------------------------------------|
----------------------------------------------------------------------------|
-10--x-x-10-x-x-10-x--10-10--10-10---------------------------------8--x-8-8-|
-10--x-x-10-x-x-10-x--10-10--10-10---8--x-x-8--x-x-8--x-8-8--8-8---8--x-8-8-|
-8---x-x-8--x-x-8--x--8--8---8--10---8--x-x-8--x-x-8--x-8-8--8-8---6--x-6-6-|
-------------------------------------6--x-x-6--x-x-6--x-6-6--6-6------------|

--------|
--------|
--8-8---|
--8-8---|
--6-6---|

Outro:

-----------------------------------------------------|
-----------------------------------------------------|
-----------------------------------------------------|
-10--10--10-10--10-10--10-10--------------8--8-8-8---|
-8---8---8-8----10-10--10-10---8--8--8----8--8-8-8---|
-8---8---8-8----8--8---8--8----8--8--8----6--6-6-6---|
-------------------------------6--6--6---------------|


ORDER:

intro/verse: 8 times
CHORUS: 2 times
intro/verse: 8 times
CHORUS: 8 times
Outro: 8 times

------|
------|
-10---|
-10---|
-8----|
------|

done!
Tap to rate this tab
# A B C D E F G H I J K L M N O P Q R S T U V W X Y Z