Song name
# A B C D E F G H I J K L M N O P Q R S T U V W X Y Z

Screeching Weasel - Inside Out tab

------------------------------------------------------
	    Inside Out - Screeching Weasel
------------------------------------------------------
Tabbed by: Steve Plomedahl (user: a12thof12)
Email: splomedahl@yahoo.com

I think this is correct. Still working on the bridge (single chorus)... enjoy!

Intro
Gtr 1 (2x before bass intro; 3x before Gtr 2; 6x before verse)
e |----------------------------------------------|
B |----------------------------------------------|
G |-99999--11/9999---7/99999/799999--------------|
D |-99999--11/9999---7/99999/799999--------------|
A |-7-------9--------5-------5-------------------|
E |----------------------------------------------|

Gtr 2 
e |----------------------------------------------|
B |----------------------------------------------|
G |-9---------11---------------7-----------------|
D |-9-999999--11-111111111111--7-777777777777----|
A |-7-777777---9--9-9-9-9-9-9--5-555555555555----|
E |----------------------------------------------|
 PM |------|   |------------|  |------------|

Verse (Gtr 1 & Gtr2)
e |----------------------------------------------|
B |----------------------------------------------|
G |-9---------11---------------7-----------------|
D |-9-999999--11-111111111111--7-777777777777----|
A |-7-777777---9--9-9-9-9-9-9--5-555555555555----|
E |----------------------------------------------|
 PM |------|   |------------|  |------------|


Intro
Verse
Intro
Verse
Bridge/Chorus
Outro (same as intro)
Tap to rate this tab
 
# A B C D E F G H I J K L M N O P Q R S T U V W X Y Z