Song name
# A B C D E F G H I J K L M N O P Q R S T U V W X Y Z

Screeching Weasel - Hey Suburbia tab

Hey Suburbia

by Screetching Weasel

tabbed by Chris Mitchell
unstoppable15@hotmail.com

Intro
e----------------------------------------------------|
B-0-0-0-0-0-0-0-7-7-5-5-4-----------------7-7-5-5-4--|
G-------------------------1-1-1-1-1-1-1-1------------|
D----------------------------------------------------|
A----------------------------------------------------|
E----------------------------------------------------|

e----------------------------------------------------|
B---------------7-7-5-5-4-2-2-2-2-2-2-4-2-4-2-0------|
G----------------------------------------------------|
D2-2-2-2-2-2-2-2-------------------------------------|
A----------------------------------------------------|
E----------------------------------------------------|

Verse

e----------------------------------------------------------|
B----------------------------------------------------------|
G-4-4-4-4-4-4-4---------------------4-4-4-4----------------|
D-4-4-4-4-4-4-4-6-6-6-6-6-6-6-2-2-2-4-4-4-4-4-4-4-4-4-4-4--|
A-2-2-2-2-2-2-2-6-6-6-6-6-6-6-2-2-2-2-2-2-2-4-4-4-4-4-4-4--|
E---------------4-4-4-4-4-4-4---------------2-2-2-2-2-2-2--|

Chorus
e----------------------------------------------------|
B----------------------------------------------------|
G-4-4-4-4-4-4----------------------------------------|
D-4-4-4-4-4-4-4-4-4-4-4-4-4-2-2-2-2-2-2-2-2-2--------|
A-2-2-2-2-2-2-4-4-4-4-4-4-4-2-2-2-2-2-2-2-2-2--------|
E-------------2-2-2-2-2-2-2--------------------------|
Tap to rate this tab
 
# A B C D E F G H I J K L M N O P Q R S T U V W X Y Z