Guitaretab - guitar tabs
Song name
# A B C D E F G H I J K L M N O P Q R S T U V W X Y Z

Screeching Weasel - I Can See Clearly tab

Tabbed By Matt Shepard
song: I can see clearly

Lead riff : 
|-------------------------------------------------------------------| 
|--7-6-6-7-6-6-7-6-7-6-6-7-6-6-7-6-7-6-6-7-6-6-7-6-7-6-6-7-6-6-7-6--| 
|--6-6-6-6-6-6-6-6-6-6-6-6-6-6-6-6-6-6-6-6-6-6-6-6-6-6-6-6-6-6-6-6--| 
|-------------------------------------------------------------------| 
|-------------------------------------------------------------------| 
|-------------------------------------------------------------------| 

with lead riff x2
| ------------- |
| ------------- |
| ---------11-- |
| --11--9--11-- |
| --11--9--9--- |
| --9---7------ |
[ Tab from: http://www.guitaretab.com/s/screeching-weasel/16935.html ]
Verse 
| ----------------------------------------------------------------------- |
| ----------------------------------------------------------------------- |
| ------11------11--5------11---------11------11------11--5------11------ |
| --11--11--11--11--5--11--11--11--9--11--11--11--11--11--5--11--11--11-- |
| --11--9---11--9---3--11--9---11--9--9---11--9---11--9---3--11--9---11-- |
| --9-------9----------9-------9---7------9-------9----------9-------9--- |

| ------------- |
| ------------- |
| -----11------ |
| --9--11--11-- |
| --9--9---11-- |
| --7------9--- |

with lead riff x2
| ------------- |
| ------------- |
| ---------11-- |
| --11--9--11-- |
| --11--9--9--- |
| --9---7------ |
 
[Next, one guitar plays the solo while the other continues with the lead 
riff] 

[Repeat Verse] 

Chorus : x3
| ------------- |
| ------------- |
| -----11------ |
| --9--11--11-- |
| --9--9---11-- |
| --7------9--- | 

[Play until fade out] 

*** 
[Solo] 
|-----6-7-9-7-6-----9---7-6------| 
|--6------------8-6---------8-6--| 
|--------------------------------| 
|--------------------------------| 
|--------------------------------| 
|--------------------------------| 
and repeat three times
Related for I Can See Clearly tab
Advertisement will be closed in 10 seconds