Song name
# A B C D E F G H I J K L M N O P Q R S T U V W X Y Z

Screeching Weasel - Jeannies Got A Problem tab

Tabbed By Matt Shepard
struming not Calculated

Screeching Weasel - Jeanie's got a problem with her uterus

Intro : x4 
| ----------- |
| ----------- |
| -----9--7-- |
| --7--9--7-- |
| --7--7--5-- |
| --5-------- |

Verse : x2
| ----------------------- |
| ----------------------- |
| -----7-----9-----7--9-- |
| --7--7--7--9--7--7--9-- |
| --7--5--7--7--7--5--7-- |
| --5-----5-----5-------- |

Chorus : x2
| ------------ |
| ------------ |
| --------7--- |
| --7--5--7--- |
| --7--5--5--- |
| --5--3------ |

Verse  
Chorus 

Bridge : "Jeannie isnt ovulating..." 
| -------------------------------------- |
| -------------------------------------- |
| -----7--9-----7--9-----7--9-----9--7-- |
| --7--7--9--7--7--9--7--7--9--7--9--7-- |
| --7--5--7--7--5--7--7--5--7--7--7--5-- |
| --5--------5--------5--------5-------- |

Interlude : "No simple yeast or..."
| ----------------------------------------------- |
| ----------------------------------------------- |
| -----9-----7-----9-----7-----9--------9-------- |
| --7--9--5--7--7--9--5--7--7--9--5--7--9--5--7-- |
| --7--7--5--5--7--7--5--5--7--7--5--7--7--5--7-- |
| --5-----3-----5-----3-----5-----3--5-----3--5-- |

Intro
verse
chorus 

Lead
| ------------------------------------------------------------ |
| --------------------------------------------------------10-- |
| --999999999999999999999999999999999999999999999999-9999----- |
| ------------------------------------------------------------ |
| ------------------------------------------------------------ |
| ------------------------------------------------------------ |

| ------------------------------------------------------------------- |
| -------10--------------------10--------10---------10--------------- |
| --9999-------9999999999-9999------9999-------9999-------999999----- |
| ----------------------------------------------------------------7-- |
| ------------------------------------------------------------------- |
| ------------------------------------------------------------------- |
Tap to rate this tab
# A B C D E F G H I J K L M N O P Q R S T U V W X Y Z