Song name
# A B C D E F G H I J K L M N O P Q R S T U V W X Y Z

Screeching Weasel - Psychiatrist tab

TAbbed By Matt Shepard
song: psychiatrist

Intro/Outro 
|---------------------------------------------------------| 
|---00-33-44-33--00-33-44-33--00-33-44-33--00-33-44-33----| 
|---------------------------------------------------------| 
|---------------------------------------------------------| 
|---------------------------------------------------------| 
|---------------------------------------------------------| 

Verse 
|--------------------------------------------------------| 
|--------------------------------------------------------| 
|--------------------7-7-7-7-----------------------------| 
|---9-9-9-9-9-9-9-9--7-7-7-7--7-7-7-7--------------------| 
|---9-9-9-9-9-9-9-9--5-5-5-5--7-7-7-7--------------------| 
|---7-7-7-7-7-7-7-7-----------5-5-5-5--------------------| 

Chorus                               |---------------Only on second chorus---|
| ---------------------------------------------------------------------------| 
| ---------------------------------------------------------------------------| 
| ---9-9-9-9--7-7-7-7------------------11-11-11-11-11-11-11-11-11------------| 
| ---9-9-9-9--7-7-7-7--7--9-9-9--------11-11-11-11-11-11-11-11-11------------| 
| ---7-7-7-7--5-5-5-5--7--9-9-9---------9--9--9--9--9--9--9--9--9------------| 
| ---------------------5--7-7-7----------------------------------------------|
Tap to rate this tab
# A B C D E F G H I J K L M N O P Q R S T U V W X Y Z