Song name
# A B C D E F G H I J K L M N O P Q R S T U V W X Y Z

Screeching Weasel - Supermarket Fantasy tab

TAbbed By Matt Shepard
song: supermarket fantasy

Verse 
|------------------------------------------------------------| 
|------------------------------------------------------------| 
|---------------4-4-4-4-4-4-4-9-9-9-9-9-9-9-7-7-7-7-7-7-7----| 
|-5-5-5-5-5-5-5-4-4-4-4-4-4-4-9-9-9-9-9-9-9-7-7-7-7-7-7-7----| 
|-5-5-5-5-5-5-5-2-2-2-2-2-2-2-7-7-7-7-7-7-7-5-5-5-5-5-5-5----| 
|-3-3-3-3-3-3-3----------------------------------------------| 

Chorus 
|------------------------------------------------------------| 
|------------------------------------------------------------| 
|-4-4-4-4-4-4-------------4-4-4-4-4-4------------------------| 
|-4-4-4-4-4-4-5-5-5-5-5-5-4-4-4-4-4-4-5-5-5-5-5-5------------| 
|-2-2-2-2-2-2-5-5-5-5-5-5-2-2-2-2-2-2-5-5-5-5-5-5------------| 
|-------------3-3-3-3-3-3-------------3-3-3-3-3-3------------| 

|------------------------------------------------------------| 
|------------------------------------------------------------| 
|-4-4-4-4-4-4-------------4-4-4-4-4-4-4-4-4-4-4-4------------| 
|-4-4-4-4-4-4-5-5-5-5-5-5-4-4-4-4-4-4-4-4-4-4-4-4------------| 
|-2-2-2-2-2-2-5-5-5-5-5-5-2-2-2-2-2-2-2-2-2-2-2-2------------| 
|-------------3-3-3-3-3-3------------------------------------| 

Solo 
Repeat this twice then go next line 
|---------------------------------------------------| 
|-8-8-8-8-10-8-7-7-8-8-8-8-10-8-7-10-8-7-8-7-8-10-8-| 
|---------------------------------------------------| 
|---------------------------------------------------| 
|---------------------------------------------------| 
|---------------------------------------------------| 

|---------------------------------------------------| 
|-8-8-8-8-8-8-8-8-7-6-6-8-8-8-8-8-8-8-7-6-6-8-8-8-8-| 
|---------------------------------------------------| 
|---------------------------------------------------| 
|---------------------------------------------------| 
|---------------------------------------------------| 

|---------------------------------------------------| 
|--------------8-8-8-8-10-10-10-10-10-10-10-10-8-7-5| 
|---------------------------------------------------| 
|---------------------------------------------------| 
|---------------------------------------------------| 
|---------------------------------------------------|
Tap to rate this tab
# A B C D E F G H I J K L M N O P Q R S T U V W X Y Z