Song name
# A B C D E F G H I J K L M N O P Q R S T U V W X Y Z

Screeching Weasel - Surf Goddess tab

SCREECHING WEASEL:
Surf Goddess
How to Make Enemies and Irritate People ( 1994 )

---the other version ive seen of this wrong... so heres a right one-------

****************************************************************************
 CHORDS USED IN THIS SONG

  e#5  B#5  A#5
-----------------|
-----------------|
-10--------------|
-10---10----8----|
-8----10----8----|
------8-----6----|

****************************************************************************

VERSE/ Intro....

----------------------------------------------------------|
----------------------------------------------------------|
-10---10---10-10--10---------10---10---10-10---10---------|
-10---10---10-10--10---10----10---10---10-10---10---10----|
-8----8----8--8---8----10----8----8----8--8----8----10----|
-----------------------8----------------------------8-----|

-------------------------------------------------------------|
-------------------------------------------------------------|
--------------------10----------------------------10---------|
-8---8---8-8---8----10----10---10---10-10---10----10----10---|
-8---8---8-8---6----8-----10---10---10-10---10----8-----10---|
-6---6---6-6---6----------8----8----8--8----8-----------8----|


****************************************************************************
filler thingy into pre-chorus: Just keep playing B#5
****************************************************************************

CHorus/Pre Chorus

-----------------------------------------------------------------------|
-----------------------------------------------------------------------|
-10----10----10-10----10-10----10-10-----------------------------------|
-10----10----10-10----10-10----10-10----8----8----8-8----8-8----8-8----|
-8-----8-----8--8-----8--8-----8--8-----8----8----8-8----8-8----8-8----|
----------------------------------------6----6----6-6----6-6----6-6----|

-----------------------------------------------------------------------------|
-----------------------------------------------------------------------------|
-10----10----10-10----10-10----10-10-----------------------------------------|
-10----10----10-10----10-10----10-10----10----10----10-10----10-10----10-10--|
-8-----8-----8--8-----8--8-----8--8-----10----10----10-10----10-10----10-10--|
----------------------------------------8-----8-----8--8-----8--8-----8--8---|


****************************************************************************

CHORUS:

-----------------------------------------------------------------------|
-----------------------------------------------------------------------|
-10----10----10-10----10-10----10-10-----------------------------------|
-10----10----10-10----10-10----10-10----8----8----8-8----8-8----8-8----|
-8-----8-----8--8-----8--8-----8--8-----8----8----8-8----8-8----8-8----|
----------------------------------------6----6----6-6----6-6----6-6----|

-----------------------------------------------------------------------|
-----------------------------------------------------------------------|
-10----10----10-10----10-10----10-10-----------------------------------|
-10----10----10-10----10-10----10-10----8----8----8-8----8-8----8-8----|
-8-----8-----8--8-----8--8-----8--8-----8----8----8-8----8-8----8-8----|
----------------------------------------6----6----6-6----6-6----6-6----|

-----------------------------------------------------------------------|
-----------------------------------------------------------------------|
-10----10----10-10----10-10----10-10-----------------------------------|
-10----10----10-10----10-10----10-10----8----8----8-8----8-8----8-8----|
-8-----8-----8--8-----8--8-----8--8-----8----8----8-8----8-8----8-8----|
----------------------------------------6----6----6-6----6-6----6-6----|

-------------------------------|
-------------------------------|
-------------------------------|
-10--10---10-10--10-10--10-10--|
-10--10---10-10--10-10--10-10--|
-8---8----8--8---8--8---8--8---|

****************************************************************************

Interlude: (in general... may be a bit off though)

-------------------------------------------------------------------|
-------------------------------------------------------------------|
-------------------------------------------------------------------|
----------10-p8-h10-10--------------10-p8-h10-10-------------------|
-8-------8---------------8------------------------10---8-----------|
----------------------------8----8---------------------------------|

****************************************************************************

ORDER:

Verse: x6
Pre-CHorus: x2
CHORUS: (x1)
Intrelude: 4/5 times
Verse: x4
Pre-CHorus: x2
CHorus: x2?
Verse: 5x? - till the end.
Tap to rate this tab
 
# A B C D E F G H I J K L M N O P Q R S T U V W X Y Z