Song name
# A B C D E F G H I J K L M N O P Q R S T U V W X Y Z

Screeching Weasel - First Day Of Summer tab

I couldnt find a guitar tab for this song so I decided to tab it out myself.Its an easy
for any guitar player but if you first started it might be a bit hard for you because
songs probally to fast for a begginer to play.This is my first tab but i think its 
much 100 percent.


Intro(strum each note only once):
E---------------------------------------------------|
B---------------------------------------------------|
G-------------7---9---7-----------------------------|
D-7---7-6-4---7---9---7---7-------------------------|
A-7---7-6-4---5---7---5---7-------------------------|
E-5---5-4-2---------------5-------------------------|

Verse:
E---------------------------------------------------|
B---------------------------------------------------|
G-------------------7----9----7---------------------|
D-7----7-6-4---4----7-x8-9-x4-7-x4-7----------------|
A-7-x6-7-6-4---4-x8-5----7----5----7-x4-------------|
E-5----5-4-2---2-------------------5----------------|

Pre-Chorus:
E---------------------------------------------------|
B---------------------------------------------------|
G-9---------7---------9---------7-------------------|
D-9-x4-4----7-x4-2----9-x4-4----7-x13---------------|
A-7----4-x4-5----2-x4-7----4-x4-5-------------------|
E------2---------0---------2------------------------|

Chorus(second time through dont play the last two notes):
E---------------------------------------------------|
B---------------------------------------------------|
G------7---------7---------9---------7-7-9-9--------|
D-7----7-x4-7----7-x4-7----9-x4-7----7-7-9-9--------|x2
A-7-x4-5----7-x4-5----7-x4-7----7-x4-5-5-7-7--------|
E-5---------5---------5---------5-------------------|

Bridge(last two notes are muted):
E---------------------------------------------------|
B---------------------------------------------------|
G-----------------7-----9--------------7----9-------|
D-----4-----2----7-----9-------4-----2-7-x8-9-x5----|
A----4-----2--5-----7---------4-----2--5----7-------|
E-2-----0------------------2-----0------------------|

Outro:
E---------------   E---------|
B---------------   B---------|
D------7--------   G--9------|
G-7----7-x4-----x6 D--9-x9---|
A-7-x4-5--------   A--7------|
E-5-------------   E---------|

Order:
Intro
Verse 1
Pre-Chorus
Chorus
Verse 2(muted)
Pre-Chorus
Chorus
Bridge
outro
Bridge 2(no guitar)
Solo(not a guitar solo,guitar just plays same riff as the outro)
Intro
Pre-Chorus
Chorus
outro
Tap to rate this tab
 
# A B C D E F G H I J K L M N O P Q R S T U V W X Y Z