Song name
# A B C D E F G H I J K L M N O P Q R S T U V W X Y Z

Screeching Weasel - Cindys On Methadone tab

Help us improve GuitareTab! Take a short survey!
Intro : x2
| ---------------- |
| ---------------- |
| -----7-----9---- |
| --7--7--9--9---- | 
| --7--5--9--7---- |
| --5-----7------- |

Verse : x2
| -------------------------------------------- |
| -------------------------------------------- |
| ------------77777777------------99999999---- |
| --77777777--77777777--99999999--99999999---- |
| --77777777--55555555--99999999--77777777---- |
| --55555555------------77777777-------------- |

Chorus : 
|--------------------------------------------------------------------------------------|
|--------------------------------------------------------------------------------------|
|-77777777------99999999-77777777------99999999-77777777-------99999999--777777777-9---|
|-77777777-7777-99999999-77777777-7777-99999999-77777777-7777--99999999--777777777-9---|
|-55555555-7777-77777777-55555555-7777-77777777-55555555-7777--79999999--555555555-7---|
|----------5555-------------------5555-------------------5555--------------------------|

Verse : x2
| -------------------------------------------- |
| -------------------------------------------- |
| ------------77777777------------99999999---- |
| --77777777--77777777--99999999--99999999---- |
| --77777777--55555555--99999999--77777777---- |
| --55555555------------77777777-------------- |

Chorus : 
|--------------------------------------------------------------------------------------|
|--------------------------------------------------------------------------------------|
|-77777777------99999999-77777777------99999999-77777777-------99999999--777777777-9---|
|-77777777-7777-99999999-77777777-7777-99999999-77777777-7777--99999999--777777777-9---|
|-55555555-7777-77777777-55555555-7777-77777777-55555555-7777--79999999--555555555-7---|
|----------5555-------------------5555-------------------5555--------------------------|

Lead 1
| --9-----9-10--9-----9-----9-10--9-----9-----9-10--9----- |
| -----10---------12-----10---------12-----10---------12-- |
| -------------------------------------------------------- |
| -------------------------------------------------------- |
| -------------------------------------------------------- |
| -------------------------------------------------------- |

| --9-----9-10--9-------- |
| -----10---------12-10-- |
| ----------------------- |
| ----------------------- |
| ----------------------- |
| ----------------------- |

Chorus : 
|--------------------------------------------------------------------------------------|
|--------------------------------------------------------------------------------------|
|-77777777------99999999-77777777------99999999-77777777-------99999999--777777777-9---|
|-77777777-7777-99999999-77777777-7777-99999999-77777777-7777--99999999--777777777-9---|
|-55555555-7777-77777777-55555555-7777-77777777-55555555-7777--79999999--555555555-7---|
|----------5555-------------------5555-------------------5555--------------------------|

Lead 2
| --9-----9-10--9-----9-----9-10--9-----9-----9-10--9----- |
| -----10---------12-----10---------12-----10---------12-- |
| -------------------------------------------------------- |
| -------------------------------------------------------- |
| -------------------------------------------------------- |
| -------------------------------------------------------- |

| --9-----9-10--9-----9-----9-10--9-----9-----9-10--9----- |
| -----10---------12-----10---------12-----10---------12-- |
| -------------------------------------------------------- |
| -------------------------------------------------------- |
| -------------------------------------------------------- |
| -------------------------------------------------------- |

| --9-----9-10--9----12-10-9----10-9---------- |
| -----10---------12---------12------10-9-10-- |
| -------------------------------------------- |
| -------------------------------------------- |
| -------------------------------------------- |
| -------------------------------------------- |



Related for Cindys On Methadone tab