Screeching Weasel - I Dont Give A Fuck tab

Screeching Weasel - I Don't Give A Fuck
Album: Television City Dream

e|---------------------------------------|
B|---------------------------------------|
G|------------------------------7-7---7--|   x4
D|---7-777777-7-777777-7-777777-7-7-7-7--|
A|---7-777777-7-777777-7-777777-5-5-7-5--|
E|---5-555555-5-555555-5-555555-----5----|

e|----------------------------------------------------------|
B|----------------------------------------------------------|
G|----------------------------------------------------------|   x2
D|---55555555--77777777-1010101010101010-1212121212121212---|
A|---55555555--77777777-1010101010101010-1212121212121212---|
E|---33333333--55555555-8-8-8-8-8-8-8-8--1010101010101010---|

e|---------------------------------------|
B|---------------------------------------|
G|------------------------------7-7---7--|   x4
D|---7-777777-7-777777-7-777777-7-7-7-7--|
A|---7-777777-7-777777-7-777777-5-5-7-5--|
E|---5-555555-5-555555-5-555555-----5----|

e|----------------------------------------------------------|
B|----------------------------------------------------------|
G|----------------------------------------------------------|   x2
D|---55555555--77777777-1010101010101010-1212121212121212---|
A|---55555555--77777777-1010101010101010-1212121212121212---|
E|---33333333--55555555-8-8-8-8-8-8-8-8--1010101010101010---|

e|---------------------------------------|
B|---------------------------------------|
G|------------------------------7-7---7--|   x2
D|---7-777777-7-777777-7-777777-7-7-7-7--|
A|---7-777777-7-777777-7-777777-5-5-7-5--|
E|---5-555555-5-555555-5-555555-----5----|
Tap to rate this tab
 
# A B C D E F G H I J K L M N O P Q R S T U V W X Y Z