Song name
# A B C D E F G H I J K L M N O P Q R S T U V W X Y Z

Screeching Weasel - Pretty Girls Dont Talk To Me tab

Band - Screeching Weasel
Song - Pretty Girls Dont Talk To Me
Album - Beat Is On The Brat

Tabbed By: Tyler Freear (SumFX)

Tuning: Standard (E A D G B E)

Really Awesome Song, My Favorite Track By Screeching Weasel.

.=Palm Mute

Verse
Both Speakers
|------------------------------------|
|------------------------------------|
|-5555555555555555-------------------|
|-5555555555555555-33333333-55555555-|
|-3333333333333333-33333333-55555555-|
|------------------11111111-33333333-|

Chorus
Both Speakers
|--------------------------------------|
|--------------------------------------|
|----------------------------5555------|
|-77777777-55555555-33333333-5555-5555-|
|-77777777-55555555-33333333-3333-5555-|
|-55555555-33333333-11111111------3333-|

Solo
Left Speaker
|-------------------------------------|
|-------------------------------------|
|-------------------55555555----------|
|-77777777-33333333-55555555-55555555-|
|-77777777-33333333-33333333-55555555-|
|-55555555-11111111----------33333333-|

Right Speaker
Solo Guitar 1 
|-------------|-------------------|
|-------------|-------------------|
|-------------|-------2-0---------|
|-2-3-2---2---|-2-3-2-----2-0-2-3-| x2
|-------5---3-|-------------------|
|-------------|-------------------| 

Solo Guitar 1
|-------------|-------------------|
|-------------|-------------------|
|-------------|-------2-0---------|
|-2-3-2---2---|-2-3-2-----2-0-2-3-|
|-------5---3-|-------------------|
|-------------|-------------------|
Guitar 2                             x1
|-------------|-------5-3---------|
|-5-6-5-3-5---|-5-6-5-----5-3-5-6-|
|-----------5-|-------------------|
|-------------|-------------------|
|-------------|-------------------|
|-------------|-------------------|

Guitar 1
|-------------|---------------------|
|-------------|---------------------|
|-------------|-------2-0-----------|
|-2-3-2---2---|-2-3-2-----2-0-2-3---|
|-------5---3-|-------------------3-|
|-------------|---------------------|
Guitar 2
|-------------|-------5-3-----------|
|-5-6-5-3-5---|-5-6-5-----5-3-5-6---|
|-----------5-|-------------------5-|
|-------------|---------------------|
|-------------|---------------------|
|-------------|---------------------|

Bridge
Right Speaker
|-----------------------------|
|-----------------------------|
|--------Hold For 2 Bars------|
|-7---------------------------|
|-7---------------------------|
|-5---------------------------|

Left Speaker (Right Speaker Joins In On 3rd & 4th Repeats)
|--------------------------------------|
|--------------------------------------|
|----------------------------5555------|
|-77777777-55555555-33333333-5555-5555-|
|-77777777-55555555-33333333-3333-5555-|
|-55555555-33333333-11111111------3333-|
  ........ ........ ........ .... ....

Outro
|--------------------------------------|
|--------------------------------------|
|----------------------------5555------|
|-77777777-55555555-33333333-5555-5555-|
|-77777777-55555555-33333333-3333-5555-|
|-55555555-33333333-11111111------3333-|

Overdub Comes In At 2.38 And Continues To End
|--------------|
|--------------|
|-14-14-14-14--|
|-x--x--x--x---|
|-12-12-12-12--|
|--------------|

A5
|----------|
|----------|
|----------|
|-7--------|
|-7--------|
|-5--------|

Structure
Verse x2
Chorus x2
Verse x2
Chorus x2
Solo
Verse x2
Chorus x4
Bridge x4 
Outro x4
A5

Thats It! Great Tune!
Tap to rate this tab
# A B C D E F G H I J K L M N O P Q R S T U V W X Y Z