Song name
# A B C D E F G H I J K L M N O P Q R S T U V W X Y Z

Screeching Weasel - Kathys On The Roof tab

Kathys on the Roof again by Screeching Weasel the song
sounds like theres two guitars playing i only tabbed out what i hear it sounds right to 
me its not that hard to figure
out when to change in the song if it looks confusing E-mail me at punkrampires@yahoo.com 
or leave a comment

intro 3x
D#-----------------------------------------------------------------|
A#-----------------------------------------------------------------|
F#-11--11-11-11-11-11----------------------------------------------|
C#-11--11-11-11-11-11-9-99999-11--11-11-11-11-11-11-11-11-11-11-11-|
G#-9---9--9--9--9--9--9-99999-11--11-11-11-11-11-11-11-11-11-11-11-|
D#--------------------7-77777-9---9--9--9--9--9--9--9--9--9--9--9--|

4th time goes like this
D#----------------------------------------------------|
A#----------------------------------------------------|
F#-11--11-11-11-11-11---------11----11----11----11----|
C#-11--11-11-11-11-11-9-99999-11-11-11-11-11-11-11-11-|
G#-9---9--9--9--9--9--9-99999-9--11-9--11-9--11-9--11-|
D#--------------------7-77777----9-----9-----9-----9--|

And then play this 2x
D#--------------------------------------|
A#--------------------------------------|
F#-11-11-11-11-11-11--------------------|
C#-11-11-11-11-11-11-13--13-13-13-13-13-|
G#-9--9--9--9--9--9--13--13-13-13-13-13-|
D#-------------------11--11-11-11-11-11-|

3rd time goes like this
D#--------------------------------------------------------------|
A#--------------------------------------------------------------|
F#-11-11-11-11-11-11--------------------------------------------|
C#-11-11-11-11-11-11-13-13-13-13-13-13-999999-11-11-11-11-11-11-|
G#-9--9--9--9--9--9--13-13-13-13-13-13-999999-11-11-11-11-11-11-|
D#-------------------11-11-11-11-11-11-777777-9--9--9--9--9--9--|

Repeat until chorus "kathy's on the roof" play
D#--------------------------------------------|
A#--------------------------------------------|
F#-11-11-11-11-11-11--------------------------|
C#-11-11-11-11-11-11-999999-11-11-11-11-11-11-|
G#-9--9--9--9--9--9--999999-11-11-11-11-11-11-|
D#-------------------777777-9--9--9--9--9--9--|

Play this at "And her mother thinks shes crazy"
D#---------------------------------------------------------------|
A#---------------------------------------------------------------|
F#---------------------------------------------------------------|
C#-13-13-13-13-13-13-9-99999-11-11-11-11-11-11-11-11-11-11-11-11-|
G#-13-13-13-13-13-13-9-99999-11-11-11-11-11-11-11-11-11-11-11-11-|
D#-11-11-11-11-11-11-7-77777-9--9--9--9--9--9--9--9--9--9--9--9--|
Tap to rate this tab
# A B C D E F G H I J K L M N O P Q R S T U V W X Y Z