Song name
# A B C D E F G H I J K L M N O P Q R S T U V W X Y Z

Screeching Weasel - Dingbat tab

Intro:
e|------------------------|-----------------------------|
B|------------------------|-----------------------------|
G|------8-88------7-7-7-7-|--------8-x-88--------7-x-77-|
D|-5-55-8-88-8-88-7-7-7-7-|-5-x-55-8-x-88-8-x-88-7-x-77-|
A|-5-55-6-66-8-88-5-5-5-5-|-5-x-55-6-x-66-8-x-88-5-x-55-|
E|-3-33------6-66---------|-3-x-33--------6-x-66--------|    

Verse: (she's a dingbat)
e|-----------------------------|
B|-----------------------------|
G|--------8-x-88--------7-x-77-|
D|-5-x-55-8-x-88-8-x-88-7-x-77-|    
A|-5-x-55-6-x-66-8-x-88-5-x-55-|
E|-3-x-33--------6-x-66--------| 

Lead Part 1:
e|----------------------------------|
B|----------------------------------|
G|------------7-8-10-8-7--5-3-2-0---|
D|-5-5-8-7-5----------------------3-|
A|----------------------------------|
E|----------------------------------|

Chorus:
e|---------------------------------------------------------------------|
B|---------------------------------------------------------------------|
G|---------8-8-8-8---------7-7-7-7---------8-8-8-8---------------------|
D|-5-5-5-5-8-8-8-8-8-8-8-8-7-7-7-7-5-5-5-5-8-8-8-8-8-8-8-8-10-10-10-10-|
A|-5-5-5-5-6-6-6-6-8-8-8-8-5-5-5-5-5-5-5-5-6-6-6-6-8-8-8-8-10-10-10-10-|
E|-3-3-3-3---------6-6-6-6---------3-3-3-3---------6-6-6-6-8--8--8--8--|

Bridge: Same as Verse

Lead Part 2:
e|-----------------------------------------------|
B|-----------------------------------------------|
G|-----------------------------------------------|
D|-----------------------------------------------|
A|-----6-5-3-5-3-1-3-1-0-----6-5-3-5-3-1-3-3-3-3-|
E|-3-3-------------------3-3---------------------|

Lead Part 3: (Outro)
e|---------|
B|---------|
G|---5-3-2-|
D|-5-------|
A|---------|
E|---------|

End on
e|----|
B|----|
G|----|
D|-5~-|
A|----|
E|----|

I'm pretty sure this tab is right





Tap to rate this tab
# A B C D E F G H I J K L M N O P Q R S T U V W X Y Z