Song name
# A B C D E F G H I J K L M N O P Q R S T U V W X Y Z

Screeching Weasel - Celena tab

Screeching Weasel - Celena
Submitted By: Pseudo


This song's chord progression is the same as "Louie, Louie" or "Wild 
Thing", but in a different key.

Intro (1st guitar only with distortion)

   G5       C5   A5    C5
e-------------------------------------|
B-------------------------------------|
G-------------5-----7----5------------|
D-----5------5-5--7--7--5-5-----------|  
A----5-5----3----5-----3--------------|
E---3---------------------------------|

after the second time the intro is played, the 2nd guitar should come
in just with some feedback.

Verse (played by the 2nd guitar over the first guitar with distortion)

    G5  C5  D5 C5
e---------------------|
B---------------------|
G-------5---7---5-----|
D---5---5---7---5-----|
A---5---3---5---3-----|
E---3-----------------|

Chorus (both guitars)
    E5   D5   C5
e--------------------------|
B--------------------------|
G--------7-77-5-55-5-55----|
D---2-22-7-77-5-55-5-55----|
A---2-22-5-55-3-33-3-33----|
E---0-00-------------------|


2nd part of the chorus

"Celena said..."
    C5
e------------------------------------|
B------------------------------------|
G---5-5-5-5-5-5-5-5-5-5-5-5-5-5-5-5--|
D---5-5-5-5-5-5-5-5-5-5-5-5-5-5-5-5--|
A---3-3-3-3-3-3-3-3-3-3-3-3-3-3-3-3--|
E------------------------------------|

"Celena says I broke her heart.."
     G5
e--------------------|
B--------------------|
G--------------------|
D----5-5-5-5-5-5-5-5-|
A----5-5-5-5-5-5-5-5-|
E----3-3-3-3-3-3-3-3-|

"She's going home..."
    C5
e--------------------|
B--------------------|
G---5-5-5-5-5-5-5-5--|
D---5-5-5-5-5-5-5-5--|
A---3-3-3-3-3-3-3-3--|
E--------------------|

"The time she wasted being with me..."
    G5      D5
e--------------------|
B--------------------|
G-----------7-7-7-7--|
D---5-5-5-5-7-7-7-7--|
A---5-5-5-5-5-5-5-5--|
E---3-3-3-3----------|

Note:The lyrics above each section are only the lyrics for the first
chorus, since the chorus changes lyrics each time.

Pre-Chorus (2nd guitar played palm-muted)
    G5   C5   A5   C5
e------------------------|
B------------------------|
G--------5555-7777-5555--|
D---5555-5555-7777-5555--|
A---5555-3333-5555-3333--|
E---3333-----------------|
Palm Muted

Bridge (1st guitar)
    G5      C5       G5       C5  D5
e------------------------------------|
B------------------------------------|
G--------------5---5------------5--7-|
D-----5---5---5-5-5-5--5---5---5-5-7-|
A----5-5-5-5-3---3----5-5-5-5-3----5-|
E---3---3------------3---3-----------|
Bridge (for 2nd guitar)
   G5   C5   G5   C5 D5
e--------------------------|
B--------------------------|
G--------5---------5--7----|
D---5----5----5----5--7----|
A---5----3----5----3--5----|
E---3---------3------------|

Order of the song:

Intro (1st guitar only)x4
Verse (1st and 2nd guitar)x4
Chorus x2
Chorus Pt2 x4
Verse x4
Pre-Chorus x4
Chorus x2
Chorus x4
Bridge x1
Verse x4
Pre-Chorus x4
Chorus x2
Chorus Pt2 -Way to many times 

That's it.
Tap to rate this tab
# A B C D E F G H I J K L M N O P Q R S T U V W X Y Z