Song name
# A B C D E F G H I J K L M N O P Q R S T U V W X Y Z

Screeching Weasel - Pretty Girls Dont Talk To Me tab

Screeching Weasel - Pretty Girls Don't Talk to Me
Album: Formula 27 (LP) and on Beat is on the Brat
By: Tank (punktank45 at yahoo.com)

Im pretty sure theres only the 2 main progressions and the lead part

Verse
   
     C  F  G  C  F  G

e|-----------------------
B|-----------------------
G|---5--------5----------
D|---5--3--5--5--3--5----
A|---3--3--5--3--3--5----
E|------1--3-----1--3----



"Pretty girls dont talk to me"

     A  G  F  C  G

e|----------------------
B|----------------------
G|------------5---------
D|---7--5--3--5--5------
A|---7--5--3--3--5------
E|---5--3--1-----3------

Lead

e|------------------------------------------
B|------------------------------------------
G|------------------------------------------
D|---2--3--2-0-2-----2--3--2--5-3-2-0--2-3-- (Repeat)
A|---------------3--------------------------
E|------------------------------------------
Tap to rate this tab
 
# A B C D E F G H I J K L M N O P Q R S T U V W X Y Z