Song name
# A B C D E F G H I J K L M N O P Q R S T U V W X Y Z

Screeching Weasel - Dont Touch My Car tab

Screeching Weasel - Don't Touch My Car

Album: Screeching Weasel - S/T
Track: 11

By: Tank (punktank45 at yahoo.com)


Verse/Intro


e|----------------
B|----------------
G|---------4--6---
D|---4--8--4--6---
A|---4--8--2--4---
E|---2--6---------


Chorus

"Dont you touch my car!!"

e|----------------
B|----------------
G|---6------------
D|---6------------
A|---4------------
E|----------------

Lyrics

Hey you - You're a blonde 
What you say is always wrong 
Hey look - you can sprint 
Don't you know you're in like flint 

Don't touch my car 

Hey you - you're a star 
If we are we went too far 
Hey look - I sing a song 
Don't you know it's just for fun ?
Tap to rate this tab
 
# A B C D E F G H I J K L M N O P Q R S T U V W X Y Z