Song name
# A B C D E F G H I J K L M N O P Q R S T U V W X Y Z

Screeching Weasel - American Suicide tab

Help us improve GuitareTab! Take a short survey!
American Suicide - Screeching Weasel
   Im Kyle if u want to contact me email to Askingforit73@msn.com 
      *= 4 **= 8

Verse
E----------------------------------------------------------------
B----------------------------------------------------------------
G---11**---------------------------------------------------------
D---11---11*---12*-----------------------------------------------
A----9---11----12------------------------------------------------
E---------9----10------------------------------------------------

Chorus
E----------------------------------------------------------------
B----------------------------------------------------------------
G----------------11**---12/11---11-------------------------------
D---9**---11**---11-----12/11---11-------------------------------
A---9-----11------9-----10/ 9----9-------------------------------
E---7------9-----------------------------------------------------


Yeah its an easy song but fun to play.  If you have any other Screeching 
Weasel tabs email me at Askingforit73@msn.com
Related for American Suicide tab