Song name
# A B C D E F G H I J K L M N O P Q R S T U V W X Y Z

Screeching Weasel - Diy tab

Intro:
E-------------------------------------------------|
B-------------------------------------------------|
G-----7--11--9--7---------------------------------|
D--7--7--11--9--7---------------------------------|
A--7--5--9---7--5---------------------------------|
E--5----------------------------------------------|

Verse:
E-------------------------------------------------|
B-------------------------------------------------|
G-----7--11--9--7---------------------------------|
D--7--7--11--9--7---------------------------------|
A--7--5--9---7--5---------------------------------|
E--5----------------------------------------------|

*These are just the chords. The song is pretty simple and consists of these same chords 
played in different ways (palm muting etc.) I'm guessing that you'll be able to figure 
out.
Tap to rate this tab
# A B C D E F G H I J K L M N O P Q R S T U V W X Y Z