Song name
# A B C D E F G H I J K L M N O P Q R S T U V W X Y Z

Screeching Weasel - Youre The Enemy tab

Song: You're the enemy
Band: Screeching Weasel
Album: Teen Punks in Heat


-------------------      ------------------      --------------------
-------------------      ------------------      --------------------
-------------------      --7---------------      --9--7--9--7--9--7--
--6-7-6-7-6-7-6-7--      --7------6-7-6-7--      --9--7--9--7--9--7--
--6-7-6-7-6-7-6-7-- x1   --5------6-7-6-7-- x2   --7--5--7--5--7--5-- x1
--4-5-4-5-4-5-4-5--      ---------4-5-4-5--      --------------------

Repeat all of that x2

then end with:    ------------------------
                  ------------------------
                  ------------------7-----
                  --6-7-6-7-6-7--7--7--7--
                  --6-7-6-7-6-7--7--5--7--
                  --4-5-4-5-4-5--5-----5--
Tap to rate this tab
# A B C D E F G H I J K L M N O P Q R S T U V W X Y Z