Song name
# A B C D E F G H I J K L M N O P Q R S T U V W X Y Z

Screeching Weasel - Dummy Up tab

-------------------------------------------------------------------------------
                       DUMMY UP - SCREECHING WEASEL
-------------------------------------------------------------------------------

By:Robin Tenney--magnaplaid@hotmail.com 

  VERSE:
e|--------------------------------
B|--------------------------------
G|--6-----------------------6-----
D|--6-(pm)--4-------6-------6-(pm)
A|--4-------4-(pm)--6-(pm)--4-----
E|----------2-------4-------------
    (They want the truth...)

  CHORUS 1:
e|--------------------------
B|--------------------------
G|------9---7---9-----------
D|--7---9---7---9-----------
A|--7---7---5---7-----------
E|--5-----------------------
    (They can't make you...)

  VERSE:
e|--------------------------------
B|--------------------------------
G|--6-----------------------6-----
D|--6-(pm)--4-------6-------6-(pm)
A|--4-------4-(pm)--6-(pm)--4-----
E|----------2-------4-------------
     (Keep it mum...)

  CHORUS 1

  VERSE:
e|--------------------------------
B|--------------------------------
G|--8-----------------------8-----
D|--8-(pm)--6-------8-------8-(pm)
A|--6-------6-(pm)--8-(pm)--6-----
E|----------4-------6-------------
     (Keep it zipped...)

  CHORUS 2:
e|---------------------------
B|---------------------------
G|------11---9---11----------
D|--9---11---9---11----------
A|--9----9---7----9----------
E|--7------------------------
     (They can't make you...)

  OUTRO:
e|------------
B|------------
G|------------
D|--9---2---4-
A|--9---2---4-
E|--7---0---2-


Well, that's what I've got.  This is my first attempt at tabbing a song.  
Let me know if it's way off.
Tap to rate this tab
# A B C D E F G H I J K L M N O P Q R S T U V W X Y Z