Song name
# A B C D E F G H I J K L M N O P Q R S T U V W X Y Z

Screeching Weasel - I Will Always Do tab

-------------------------------------------------------------------------------
		      I WILL ALWAYS DO - Screeching Weasel
-------------------------------------------------------------------------------

By:Sean    phhhtttt@yahoo.com

 both guitars    
e|---------------------------------------------------------------------------|
B|---------------------------------------------------------------------------|
G|---------------------------------------------------------------------------|
D|-------4----8----6---------------------------------------------------------|
A|---4---2----6----4---------------------------------------------------------|
E|---2-----------------------------------------------------------------------|
   p.m.--------------------------------/ 1 guitar mute the other rings out.

e|---------------------------------------------------------------------------|
B|---------------------------------------------------------------------------|
G|---------------------------------------------------------------------------|
D|------4----8----6-----------8----4-----------------------------------------|
A|--4---2----6----4------4----6----2-----------------------------------------|
E|--2--------------------2---------------------------------------------------|
   p.m.------------/ 1 guitar mute the other rings out.

e|---------------------------------------------------------------------------|
B|---------------------------------------------------------------------------|
G|---------------------------------------------------------------------------|
D|------4-------6------------------------------------------------------------|
A|--4---2---4---4------------------------------------------------------------|
E|--2-------2----------------------------------------------------------------|

Repeat these until your hand cramps and you have another kool ass Weasel tune. 
If this is wrong blame my mom, this is how she plays it.
Tap to rate this tab
# A B C D E F G H I J K L M N O P Q R S T U V W X Y Z