Song name
# A B C D E F G H I J K L M N O P Q R S T U V W X Y Z

Screeching Weasel - Youll Be In My Dreams Today tab

-------------------------------------------------------------------------------
               YOU'LL BE IN MY DREAMS TODAY - Screeching Weasel
-------------------------------------------------------------------------------

By:Steve Lopez FATWREK182@aol.com
						   pm.......
e|--------------------------------------------------------------------|
B|--------------------------------------------------------------------|
G|---------10-------------8-------------10-------8--------------------|
D|---8-----10-----8-------8------8------10-------8--------------------|
A|---8-----8------8-------6------8------8--------6--------------------|
E|---6------------6--------------6------------------------------------|

e|---------------------------------------------------------|
B|---------------------------------------------------------|
G|----------------8--------------10-----8------------------|
D|---8-----10-----8-------8------10-----8------8------10---|
A|---8-----10-----6-------8------8------6....--8------10---|
E|---6-----8--------------6....---....---------6....--8....|

(it changes a bit through the song, you can figure it out)
Tap to rate this tab
# A B C D E F G H I J K L M N O P Q R S T U V W X Y Z