Song name
# A B C D E F G H I J K L M N O P Q R S T U V W X Y Z

Screeching Weasel - We Are The Generation X tab

-------------------------------------------------------------------------------
                WE ARE THE GENERATION X - Screeching Weasel
-------------------------------------------------------------------------------

By: Alex (AlexMaedge@online.de)

Simple song, but play fast...

1. E                H                D          A        E
e|-----------------------------------------------------------------------|
B|-----------------------------------------------------------------------|
G|-9-9-9-9-9-9-9-9-------------------7--7--7-7-----------9-9-9-9-9-9-9-9-|
D|-9-9-9-9-9-9-9-9--9-9-9-9-9-9-9-9--7--7--7-7--7-7-7-7--9-9-9-9-9-9-9-9-|
A|-7-7-7-7-7-7-7-7--9-9-9-9-9-9-9-9--5--5--5-5--7-7-7-7--7-7-7-7-7-7-7-7-|
E|------------------7-7-7-7-7-7-7-7-------------5-5-5-5------------------|

2. E    H    D        A
e|--------------------------------------------------------------------|
B|--------------------------------------------------------------------|
G|-9-9-------7--7-7---------------------------------------------------|
D|-9-9--9-9--7--7-7---7-7777------------------------------------------|
A|-7-7--9-9--5--5-5---7-7777------------------------------------------|
E|------7-7-----------5-5555------------------------------------------|

Play:
1. 4x
2. 4x
1. 2x
2. 4x
1. 2x | Solo
2. 4x | Solo
1. 2x
2. 8x

Solo: First Part
e|-9-10-1212121212-9-10-1212121212-10-12-10-12-10-12-10-12-12-10-9------------------|
B|-----------------------------------------------------------------12-10-9----------|
G|--------------------------------------------------------------------------11-9/7~-|
D|----------------------------------------------------------------------------------|
A|----------------------------------------------------------------------------------|
E|----------------------------------------------------------------------------------|

Solo: Second Part
e|-9-10-1212121212-9-10-1212121212-10-12-10-12-10-12-10-12-12-10-9-------------------12-14-15--|
B|-----------------------------------------------------------------12-10-9--12-14-15-----------|
G|---------------------------------------------------------------------------------------------|
D|---------------------------------------------------------------------------------------------|
A|---------------------------------------------------------------------------------------------|
E|---------------------------------------------------------------------------------------------|

Solo: Third Part
e|---------------------------------------------------------------191919191919-|
B|--------------------------------------------------------17^^^---------------|
G|-21-19-17-21-19-17-21-19-17-21-19-17-21-19-17-21-19-17----------------------|
D|----------------------------------------------------------------------------|
A|----------------------------------------------------------------------------|
E|----------------------------------------------------------------------------|
Tap to rate this tab
 
# A B C D E F G H I J K L M N O P Q R S T U V W X Y Z