Song name
# A B C D E F G H I J K L M N O P Q R S T U V W X Y Z

Screeching Weasel - Joanie Loves Johnny tab

-------------------------------------------------------------------------------
                     JOANIE LOVES JOHNNY - Screeching Weasel
-------------------------------------------------------------------------------

*This is a pretty easy song, if you listen to it a few times
you'll hear how everything fits in.  There isn't really anything
technical in it, which makes it that much easier.

Main Chord Progression
e|-----------------|
B|-----------------|
G|----5---7-5---7--|
D|-5--5-5-7-5-5-7--|
A|-5--3-5-5-3-5-5--|
E|-3----3-----3----|

Lead Part
e|--------------|
B|--------------|
G|-7-4-5-4------|
D|---------5----|
A|-----------5--|
E|--------------|
Tap to rate this tab
 
# A B C D E F G H I J K L M N O P Q R S T U V W X Y Z