Song name
# A B C D E F G H I J K L M N O P Q R S T U V W X Y Z

Screeching Weasel - I Hate Led Zeppelin tab

TAbbed BY MAtt Shepard
song: I hate led zepplin

Rythm Fig. 1 (INTRO) 
| ----------------------------------------------- | 
| ----------------------------------------------- | 
| ----------------------------------------------- | 
| --9-9-9-9-7-7-7-7-10-10-10-10-8---8---8---8---- | 
| --9-9-9-9-7-7-7-7-10-10-10-10-8---8---8---8---- | 
| --7-7-7-7-5-5-5-5--8--8--8--8-6---6---6---6---- | 

Rythm Fig. 2 
| --------------------------------------------------------------- | 
| --------------------------------------------------------------- | 
| --------------------------------------------------------------- | 
| --9-9-9-9-7-7-7-7-10-10-10-10-8---8---8---8---8---8---8---8---- | 
| --9-9-9-9-7-7-7-7-10-10-10-10-8---8---8---8---8---8---8---8---- | 
| --7-7-7-7-5-5-5-5--8--8--8--8-6---6---6---6---6---6---6---6---- | 

Rythm Fig. 3 
|---------------------------------------------------- | 
|---------------------------------------------------- | 
|---------------------------------------------------- | 
|--9---9---9---9---9---9---9---9--------------------- | 
|--9---9---9---9---9---9---9---9--5-6-5-6-5-6-5-6---- | 
|--7---7---7---7---7---7---7---7--------------------- |
Tap to rate this tab
 
# A B C D E F G H I J K L M N O P Q R S T U V W X Y Z