Guitaretab - guitar tabs
Song name
# A B C D E F G H I J K L M N O P Q R S T U V W X Y Z

Screeching Weasel - Six Am tab

Screeching Weasel - Six A.M.
Submitted By: banglerdesh 23


Normal Tuning
Guitar 1:Medium Distortion
Guitar 2:Clean

/slide down
\Side up


Intro
Guitar 1:
    A5    D A5 E5         x2
e---------------------------|
B----------7----------------|
G----------7---9-99999999---|
D---7-7777-7-7-9-99999999---|
A---7-7777-5-7-7-77777777---|
E---5-5555---5--------------|

Riff 
Guitar 2:

e----------------------------------------|
B----------------------------------------|
G----------------------------------------|
D---7-9-11-12-14-16-14-11-9-11-9-11-9-7--|
A----------------------------------------|
E----------------------------------------|

Verse
Guitar 1:
[ Tab from: http://www.guitaretab.com/s/screeching-weasel/54690.html ]
pt.1   A5      D5      A5      E5 
                                       x2 pt.2           x3 (last time
e----------------------------------------|-----------------| end on
B----------------------------------------|-----------------| A5)
G--------------7-7-7-7---------9-9-9-9---|-7-7-7-7-9-9-9-9-|
D------7-7-7-7-7-7-7-7-7-7-7-7-9-9-9-9---|-7-7-7-7-9-9-9-9-|
A------7-7-7-7-5-5-5-5-7-7-7-7-7-7-7-7---|-5-5-5-5-7-7-7-7-|
E------5-5-5-5---------5-5-5-5-----------|-----------------|

Interlude
Guitar 2:

    F#5     D5      A5      E5
                                  x2(strum E5 16 times second time
e-----------------------------------|around)
B-----------------------------------|
G-----------7-7-7-7---------9-9-9-9-|
D---4-4-4-4-7-7-7-7-7-7-7-7-9-9-9-9-|
A---4-4-4-4-5-5-5-5-7-7-7-7-7-7-7-7-|
E---2-2-2-2---------5-5-5-5---------|

Outro
Guitar 2:

Do a bunch of hammers and pull-offs on the 7th and 9th frets on 
string D and then and on an A.

Order of Song:

Intro 
Riff (played over verse pt.1 x4)
Verse x2
Interlude x2
Verse x1, pt.2 x7, play F#5 instead of A5 3rd time, and repeat ending
(if that makes sense)
Riff x2 
Outro x4 (played over verse pt.1 x4)
End with both guitars on A.

That's it.
Related for Six Am tab
Six Am chords by Screeching Weasel