Song name
# A B C D E F G H I J K L M N O P Q R S T U V W X Y Z

Screeching Weasel - Mary Was An Anarchist tab

Screeching Weasel - Mary Was An Anarchist
Submitted By: banglerdesh 23


This song is in Standard tuning

Intro

    B5      E
e--------------------|
B-----------9-9-9----|
G-----------9-9-9----|
D---9-9-9---9-9-9----|
A---9-9-9(0)7-7-7(0)-|
E---7-7-7------------|

Verse
    B5      E
e--------------------|
B-----------9-9-9----|
G-----------9-9-9----|
D---9-9-9---9-9-9----|
A---9-9-9(0)7-7-7(0)-|
E---7-7-7------------|
p.m . .   . . .   .

Chorus
               A                    E(x16)
e-------------------------------------|
B-----------------------------------9-|
G--8-8-8-8-8-8-8-8-6-6-6-6-6-6-6-6--9-|
D--9-9-9-9-9-9-9-9-7-7-7-7-7-7-7-7--9-|
A--9-9-9-9-9-9-9-9-7-7-7-7-7-7-7-7--7-|
E--7-7-7-7-7-7-7-7-5-5-5-5-5-5-5-5----|

Interlude
    C#5           E5              C#5             E5
e----------------------------------------------------|strum both x8
B----------------------------------------------------|
G---6--------------9---------------6--------------9--|
D---6--------------9---------------6--------------9--|
A---4--------------7---------------4--------------7--|
E----------------------------------------------------|

That's it. I'm too lazy to put the order of everything.
Tap to rate this tab
 
# A B C D E F G H I J K L M N O P Q R S T U V W X Y Z