Song name
# A B C D E F G H I J K L M N O P Q R S T U V W X Y Z

Screeching Weasel - Shes Giving Me The Creeps tab

Tabbed By Matt Shepard
song: she's giving me the creep

intro: 
|---------|--------|--------| 
|---------|--------|--------| 
|---------|--------|-----8--|
|--8------|--8--6--|--8--8--|
|--8--x4--|--8--6--|--8--6--|
|--6------|--6--4--|--6-----|
1 2 

verse: 
|--------|--------|--------| 
|--------|--------|--------|
|--------|-----8--|--8-----|
|--8--6--|--8--8--|--8--8--|
|--8--6--|--8--6--|--6--8--|
|--6--4--|--6-----|-----6--|
pm .  .     .  .

chorus: 
|--------------| 
|--------------| 
|-----8---8----| 
|--6--8-8-8-8--| 
|--6--6-8-6-8--| 
|--4----6---6--| 

1:25 
same as intro 2
Tap to rate this tab
 
# A B C D E F G H I J K L M N O P Q R S T U V W X Y Z