Guitaretab - guitar tabs
Song name
# A B C D E F G H I J K L M N O P Q R S T U V W X Y Z

Screeching Weasel - Punk Rock Explained tab

Posted By: Lunchbox the Otaku, buzzsawsean2003@yahoo.com

This is one of my favorite Screeching Weasel songs and i have only seen drum tabs
for it so i did this tab myself.  It took like 15 seconds to figure out the chords
and about three plays of the song to get the solo which is one of the simplest solos
ever writen, the easiest big the solo to I Wanna Be Sedated by the ramones.

This is the first tab Iíve ever done so please give me some ease on any criticisms 
you may have.

Intro/chorus
e--------------------------------------------------------|
b--------------------------------------------------------|
g-9-9-9-9-9-9--7-7-7-7-7-7-------------------------------|
d-9-9-9-9-9-9--7-7-7-7-7-7--7-7-7-7-7-7-7-7-7-7-7-7------|
a-7-7-7-7-7-7--5-5-5-5-5-5--7-7-7-7-7-7-7-7-7-7-7-7------|
E---------------------------5-5-5-5-5-5-5-5-5-5-5-5------|
figure the strumming out yourself.
[ Tab from: http://www.guitaretab.com/s/screeching-weasel/67797.html ]
verse
e--------------------------------------------------------|
b--------------------------------------------------------|
g--------------7-7-7-7-7-7--9-9-9-9-9-9------------------|
d-7-7-7-7-7-7--7-7-7-7-7-7--9-9-9-9-9-9--7---------------|
a-7-7-7-7-7-7--5-5-5-5-5-5--7-7-7-7-7-7--7---------------|
E-5-5-5-5-5-5----------------------------5---------------|
figure out the strumming yourself

The Bit Before the solo is easy.
A,A,E,A strummed once each

Solo:
E|-------------------------------------------------------|
B|-------------------------------------------------------|
G|-9-7-6-7-6---7-6----9-7-6-7-6---7-6--9-7-6-7-6---7-6---|
D|-----------7-----7------------7----------------7-----7-|
A|-------------------------------------------------------|
E|-------------------------------------------------------|
This is as close as I can figure, but there are probably
some hammer-onsí and what not that Iíve missed 


Related for Punk Rock Explained tab