Song name
# A B C D E F G H I J K L M N O P Q R S T U V W X Y Z

Screeching Weasel - Message In A Beer Bottle tab

Message in a beer bottle
i made this using tabit and exported it, thats why it might look weird.

in the intro of the song every thing inside <> is what you repeat. 
....=palm mute

and ignore the *'s. 




pm...........................................................
E   <| ----------------|----------------|----------------|
B   <| ----------------|----------------|----------------|
G   <| 9-9-9-9-9-9-9-9-|----------------|----------------|
D   <| 9-9-9-9-9-9-9-9-|9-9-9-9-9-9-9-9-|7-7-7-7-7-7-7-7-|
A   <| 7-7-7-7-7-7-7-7-|9-9-9-9-9-9-9-9-|7-7-7-7-7-7-7-7-|
E   <| ----------------|7-7-7-7-7-7-7-7-|5-5-5-5-5-5-5-5-|
....................................................................
E  :---------------- |>x2|------------------------|----------------|
B  :---------------- |>  |------------------------|----------------|
G  :----------------*|>  |------------------------|9-9-9-9-9-9-9-9-|
D  :7-7-7-7-9-9-9-9-*|>  |11-11-11-11-11-11-11-11-|9-9-9-9-9-9-9-9-|
A  :7-7-7-7-9-9-9-9- |>  |11-11-11-11-11-11-11-11-|7-7-7-7-7-7-7-7-|
E  :5-5-5-5-7-7-7-7- |>  |-9--9--9--9--9--9--9--9-|----------------|
...............................................................
E  :----------------|----------------|------------------------|
B  :----------------|----------------|------------------------|
G  :----------------|----------------|------------------------|
D  :7-7-7-7-7-7-7-7-|9-9-9-9-9-9-9-9-|11-11-11-11-11-11-11-11-|
A  :7-7-7-7-7-7-7-7-|9-9-9-9-9-9-9-9-|11-11-11-11-11-11-11-11-|
E  :5-5-5-5-5-5-5-5-|7-7-7-7-7-7-7-7-|-9--9--9--9--9--9--9--9-|
..............................................
E  :----------------|----------------|-----------------|
B  :----------------|----------------|-----------------|
G  :----------------|9-9-9-9-9-9-9-9-|9-9-9-9----------|
D  :7-7-7-7-7-7-7-7-|9-9-9-9-9-9-9-9-|9-9-9-9-9-9-9-11-|
A  :7-7-7-7-7-7-7-7-|7-7-7-7-7-7-7-7-|7-7-7-7-9-9-9-11-|
E  :5-5-5-5-5-5-5-5-|----------------|--------7-7-7--9-|
...............................................................
E  :------------------------|----------------|----------------|
B  :------------------------|----------------|----------------|
G  :------------------------|9-9-9-9-9-9-9-9-|----------------|
D  :11-11-11-11-11-11-11-11-|9-9-9-9-9-9-9-9-|7-7-7-7-7-7-7-7-|
A  :11-11-11-11-11-11-11-11-|7-7-7-7-7-7-7-7-|7-7-7-7-7-7-7-7-|
E  :-9--9--9--9--9--9--9--9-|----------------|5-5-5-5-5-5-5-5-|
...............................................................
E  :----------------|------------------------|----------------|
B  :----------------|------------------------|----------------|
G  :----------------|------------------------|----------------|
D  :9-9-9-9-9-9-9-9-|11-11-11-11-11-11-11-11-|7-7-7-7-7-7-7-7-|
A  :9-9-9-9-9-9-9-9-|11-11-11-11-11-11-11-11-|7-7-7-7-7-7-7-7-|
E  :7-7-7-7-7-7-7-7-|-9--9--9--9--9--9--9--9-|5-5-5-5-5-5-5-5-|

E  :-----------------|----------------|---------------------|
B  :-----------------|----------------|---------------------|
G  :----------9-9-9-9|-*--------------|---------------------|
D  :9--*------9-9-9-9|-9-9-9-7-7-7-7-7|-7-7-7-11-11-11-11-11|
A  :9--*------7-7-7-7|-9-9-9-7-7-7-7-7|-7-7-7-11-11-11-11-11|
E  :7--*-------------|-7-7-7-5-5-5-5-5|-5-5-5--9--9--9--9--9|

E  :-------------------|----------------|----------------|
B  :-------------------|----------------|----------------|
G  :-------------------|-------9-9-9-9-*|----------------|
D  :-11-11-11-9-9-9-9-9|-9-9-9-9-9-9-9-9|-9-9-7-7-7-7-7-7|
A  :-11-11-11-9-9-9-9-9|-9-9-9-7-7-7-7-9|-9-9-7-7-7-7-7-7|
E  :--9--9--9-7-7-7-7-7|-7-7-7---------7|-7-7-5-5-5-5-5-5|

E  :----------------------|------------------|----------------|
B  :----------------------|------------------|----------------|
G  :----------------------|------------------|----------------|
D  :-7-7-11-11-11-11-11-11|-11-11-9-9-9-9-9-9|-9-9-7-7-7-7-7-7|
A  :-7-7-11-11-11-11-11-11|-11-11-9-9-9-9-9-9|-9-9-7-7-7-7-7-7|
E  :-5-5--9--9--9--9--9--9|--9--9-7-7-7-7-7-7|-7-7-5-5-5-5-5-5|

E  :----------------|----------------------|------------------|
B  :----------------|----------------------|------------------|
G  :----------------|----------------------|------------------|
D  :-7-7-9-9-9-9-9-9|-9-9-11-11-11-11-11-11|-11-11-9-9-9-9-9-9|
A  :-7-7-9-9-9-9-9-9|-9-9-11-11-11-11-11-11|-11-11-9-9-9-9-9-9|
E  :-5-5-7-7-7-7-7-7|-7-7--9--9--9--9--9--9|--9--9-7-7-7-7-7-7|

E  :----------------|----------------|----------------------|
B  :----------------|----------------|----------------------|
G  :----------------|----------------|----------------------|
D  :-9-9-7-7-7-7-7-7|-7-7-9-9-9-9-9-9|-9-9-11-11-11-11-11-11|
A  :-9-9-7-7-7-7-7-7|-7-7-9-9-9-9-9-9|-9-9-11-11-11-11-11-11|
E  :-7-7-5-5-5-5-5-5|-5-5-7-7-7-7-7-7|-7-7--9--9--9--9--9--9|
                            ............................... 
E  :------------------|----------------|----------------|----------------|
B  :------------------|----------------|----------------|----------------|
G  :------------------|----------------|----------------|----------------|
D  :-11-11-9-9-9-9-9-9|-9-9-7-7-7-7-7-7|-7-9-9-9-9-9-9-9|-9-9--*---------|
A  :-11-11-9-9-9-9-9-9|-9-9-7-7-7-7-7-7|-7-9-9-9-9-9-9-9|-9-9--*---------|
E  :--9--9-7-7-7-7-7-7|-7-7-5-5-5-5-5-5|-5-7-7-7-7-7-7-7|-7-7--*---------|
.................................................................
E  :----------------|-----------------|-----------------------|
B  :----------------|-----------------|-----------------------|
G  :9-9-9-9-*-------|-----------------|-----------------------|
D  :9-9-9-9-9-9-9-7-|7-7-7-7-7-7-7-11-|11-11-11-11-11-11-11-9-|
A  :7-7-7-7-9-9-9-7-|7-7-7-7-7-7-7-11-|11-11-11-11-11-11-11-9-|
E  :*-------7-7-7-5-|5-5-5-5-5-5-5--9-|-9--9--9--9--9--9--9-7-|
.................................................................
E  :----------------|----------------|------------------|
B  :----------------|----------------|------------------|
G  :--------------9-|9-9-9-*---------|------------------|
D  :9-9-9-9-9-9-9-9-|9-9-9-9-9-9-7-7-|7-7-7-7-7-7-11-11-|
A  :9-9-9-9-9-9-9-7-|7-7-7-9-9-9-7-7-|7-7-7-7-7-7-11-11-|
E  :7-7-7-7-7-7-7-*-|------7-7-7-5-5-|5-5-5-5-5-5--9--9-|
..............................................................
E  :----------------------|----------------|----------------|
B  :----------------------|----------------|----------------|
G  :----------------------|------------9-9-|9-9-*-----------|
D  :11-11-11-11-11-11-9-9-|9-9-9-9-9-9-9-9-|9-9-9-9-9-7-7-7-|
A  :11-11-11-11-11-11-9-9-|9-9-9-9-9-9-7-7-|7-7-9-9-9-7-7-7-|
E  :-9--9--9--9--9--9-7-7-|7-7-7-7-7-7-*---|----7-7-7-5-5-5-|
...............................................................
E  :-------------------|---------------------|----------------|
B  :-------------------|---------------------|----------------|
G  :-------------------|---------------------|----------9-9-9-|
D  :7-7-7-7-7-11-11-11-|11-11-11-11-11-9-9-9-|9-9-9-9-9-9-9-9-|
A  :7-7-7-7-7-11-11-11-|11-11-11-11-11-9-9-9-|9-9-9-9-9-7-7-7-|
E  :5-5-5-5-5--9--9--9-|-9--9--9--9--9-7-7-7-|7-7-7-7-7-*-----|
..............................................................
E  :----------------|--------------------|--------------------|
B  :----------------|--------------------|--------------------|
G  :9-*-------------|--------------------|--------------------|
D  :9-9-9-9-7-7-7-7-|7-7-7-7-11-11-11-11-|11-11-11-11-9-9-9-9-|
A  :7-9-9-9-7-7-7-7-|7-7-7-7-11-11-11-11-|11-11-11-11-9-9-9-9-|
E  :--7-7-7-5-5-5-5-|5-5-5-5--9--9--9--9-|-9--9--9--9-7-7-7-7-|
...........
E  :----------------|----------------|---------------------|
B  :----------------|----------------|---------------------|
G  :--------9-9-9-9-|*---------------|---------------------|
D  :9-9-9-9-9-9-9-9-|9-9-9-7-7-7-7-7-|7-7-7-11-11-11-11-11-|
A  :9-9-9-9-7-7-7-7-|9-9-9-7-7-7-7-7-|7-7-7-11-11-11-11-11-|
E  :7-7-7-7-*-------|7-7-7-5-5-5-5-5-|5-5-5--9--9--9--9--9-|

E  :-------------------|----------------|----------------|
B  :-------------------|----------------|----------------|
G  :-------------------|------9-9-9-9-*-|----------------|
D  :11-11-11-9-9-9-9-9-|9-9-9-9-9-9-9-9-|9-9-7-7-7-7-7-7-|
A  :11-11-11-9-9-9-9-9-|9-9-9-7-7-7-7-9-|9-9-7-7-7-7-7-7-|
E  :-9--9--9-7-7-7-7-7-|7-7-7-*-------7-|7-7-5-5-5-5-5-5-|

E  :----------------------|------------------|----------------|
B  :----------------------|------------------|----------------|
G  :----------------------|------------------|----9-9-9-9-*---|
D  :7-7-11-11-11-11-11-11-|11-11-9-9-9-9-9-9-|9-9-9-9-9-9-9-9-|
A  :7-7-11-11-11-11-11-11-|11-11-9-9-9-9-9-9-|9-9-7-7-7-7-9-9-|
E  :5-5--9--9--9--9--9--9-|-9--9-7-7-7-7-7-7-|7-7-*-------7-7-|

E  :----------------|-----------------------|-----------------|
B  :----------------|-----------------------|-----------------|
G  :----------------|-----------------------|-----------------|
D  :9-7-7-7-7-7-7-7-|7-11-11-11-11-11-11-11-|11-9-9-9-9-9-9-9-|
A  :9-7-7-7-7-7-7-7-|7-11-11-11-11-11-11-11-|11-9-9-9-9-9-9-9-|
E  :7-5-5-5-5-5-5-5-|5--9--9--9--9--9--9--9-|-9-7-7-7-7-7-7-7-|

E  :----------------|----------------|------------------------|
B  :----------------|----------------|------------------------|
G  :--9-9-9-9-*-----|----------------|------------------------|
D  :9-9-9-9-9-9-9-9-|7-7-7-7-7-7-7-7-|11-11-11-11-11-11-11-11-|
A  :9-7-7-7-7-9-9-9-|7-7-7-7-7-7-7-7-|11-11-11-11-11-11-11-11-|
E  :7-*-------7-7-7-|5-5-5-5-5-5-5-5-|-9--9--9--9--9--9--9--9-|

E  :----------------|----------------|
B  :----------------|----------------|
G  :----------------|9--*------------|
D  :9-9-9-9-9-9-9-9-|9--*------------|
A  :9-9-9-9-9-9-9-9-|7--*------------|
E  :7-7-7-7-7-7-7-7-|*---------------|
Tap to rate this tab
 
# A B C D E F G H I J K L M N O P Q R S T U V W X Y Z