Song name
# A B C D E F G H I J K L M N O P Q R S T U V W X Y Z

Screeching Weasel - Murder In The Brady House tab

E-mail me at shunned_guitarist@hotmail.com if you corrections.

Intro/Outro: F# G F# G F# G 
e|---------------------|
B|---------------------|
G|---------------------|
D|-4/5-4/5-4/5-5-5-5-5-|
A|-4/5-4/5-4/5-5-5-5-5-|
E|-2/3-2/3-2/3-3-3-3-3-|

Verse: G D C
e|-------------------------------------------|
B|-------------------------------------------|
G|---------------7-7-7-7-7-7-7-5-5-5-5-5-5-5-|
D|-5-5-5-5-5-5-5-7-7-7-7-7-7-7-5-5-5-5-5-5-5-|
A|-5-5-5-5-5-5-5-5-5-5-5-5-5-5-3-3-3-3-3-3-3-|
E|-3-3-3-3-3-3-3-----------------------------|

Chorus: A D G C
e|---------------------------------------------------------|
B|---------------------------------------------------------|
G|---------------7-7-7-7-7-7-7---------------5-5-5-5-5-5-5-|
D|-7-7-7-7-7-7-7-7-7-7-7-7-7-7-5-5-5-5-5-5-5-5-5-5-5-5-5-5-|
A|-5-5-5-5-5-5-5-5-5-5-5-5-5-5-5-5-5-5-5-5-5-3-3-3-3-3-3-3-|
E|-5-5-5-5-5-5-5---------------3-3-3-3-3-3-3---------------|

Bridge: A (keep playing chord until you get back to the verse)
e|---|
B|---|
G|---|
D|-5-|
A|-5-|
E|-3-|

Solo: Just play around with the bottom two strings.  I'll probably tab this part out eventually.
Tap to rate this tab
 
# A B C D E F G H I J K L M N O P Q R S T U V W X Y Z