Song name
# A B C D E F G H I J K L M N O P Q R S T U V W X Y Z

Screeching Weasel - I Wrote Holden Caulfield tab

e---------------------------------------------|
b---------------------------------------------|
g-4---------4---------4---------4--------3----|
d-4----4----4----2----4----4----4--------3----|
a-2----4----2----2----2----4----2--------1----|
e------2---------0---------2------------------|

e----------------------------------------|
b----------------------------------------|
g-4---------4---------4---------4--------|
d-4----4----4----2----4----4----4--------|
a-2----4----2----2----2----4----2--------|
e------2---------0---------2-------------|

e----------------------------------------------|
b----------------------------------------------|
g-6-------------------6---------------4--------|
d-6----2--4--2--------6----2--4--2----4--------|
a-4----2--4--2--------4----2--4--2----2--------|
e------0--2--0-------------0--2--0-------------|

e---------------------------------------------|
b---------------------------------------------|
g-4---------4---------4---------4--------3----|
d-4----4----4----2----4----4----4--------3----|
a-2----4----2----2----2----4----2--------1----|
e------2---------0---------2------------------|

e----------------------------------------|
b----------------------------------------|
g-4---------4---------4---------4--------|
d-4----4----4----2----4----4----4--------|
a-2----4----2----2----2----4----2--------|
e------2---------0---------2-------------|

e---------------------------------------------------------------|
b---------------------------------------------------------------|
g-6---------4----------6---------4----------6---------4---------|
d-6----4----4----2-----6----4----4----2-----6----4----4----2----|
a-4----4----2----2-----4----4----2----2-----4----4----2----2----|
e------2---------0----------2---------0----------2---------0----|

e---------------------|
b---------------------|
g-6---------4---------|
d-6----4----4---------|
a-4----4----2---------|
e------2--------------|

PM....................................
e-----------------------------------------|
b-----------------------------------------|
g-4---------6---------4---------6---------|
d-4----4----6----2----4----4----6----2----|
a-2----4----4----2----2----4----4----2----|
e------2---------0---------2---------0----|


e-----------------------------|
b-----------------------------|
g-4--4--4--4--------6---------|
d-4--4--4--4--4-----6----2----|
a-2--2--2--2--4-----4----2----|
e-------------2----------0----|

e-----------------------------|
b-----------------------------|
g-4--4--4--4--------6---------|
d-4--4--4--4--4-----6----2----|
a-2--2--2--2--4-----4----2----|
e-------------2----------0----|

e-------------------------------------------|
b-------------------------------------------|
g-4---------6---------4---------6---------4-|
d-4----4----6----2----4----4----6----2----4-|
a-2----4----4----2----2----4----4----2----2-|
e------2---------0---------2---------0------|

I haven't seen a tab to this song anywhere so I decided to make one. Some of the C 
(x466xxx) are major (x4666xx). I did most of this out of memory and I hope it's right.
Tap to rate this tab
# A B C D E F G H I J K L M N O P Q R S T U V W X Y Z