Song name
# A B C D E F G H I J K L M N O P Q R S T U V W X Y Z

Screeching Weasel - Ashtray tab

Help us improve GuitareTab! Take a short survey!
Intro/Riff 1:
e|---------------|
B|---------------|
G|---------7-----|
D|-7-7-7-7-7-5-5-|
A|-7-7-7-7-5-5-5-|
E|-5-5-5-5---3-3-|

Riff 2:
e|------------------------------------------------------------|
B|------------------------------------------------------------|
G|-------------------------7--------------7-------------7-----|
D|-7-7-7-77-7-7-7--5-5-5-5-7-5-5--7-7-7-7-7-5-5-7-7-7-7-7-5-5-|
A|-7-7-7-77-7-7-7--5-5-5-5-5-5-5--7-7-7-7-5-5-5-7-7-7-7-5-5-5-|
E|-5-5-5-55-5-5-5--3-3-3-3---3-3--5-5-5-5---3-3-5-5-5-5---3-3-|

Riff 3:                           first ending (2X)   2nd ending
e|-------------------------------|---------------|--------------------|
B|-------------------------------|---------------|--------------------|
G|-5-5-5-55-5-5-5----------------|---------7-----|--------------------|
D|-5-5-5-55-5-5-5-5-5-5-55-5-5-5-|-7-7-7-7-7-5-5-|-7-77777777777777-7-|
A|-3-3-3-33-3-3-3-5-5-5-55-5-5-5-|-7-7-7-7-5-5-5-|-7-77777777777777-7-|
E|----------------3-3-3-33-3-3-3-|-5-5-5-5---3-3-|-5-55555555555555-5-|   

Solo:
e|-9-7-5--9-7-5--10-10-10-10-10-10-10--3-5--5-3-5-|
B|------------------------------------------------|
G|------------------------------------------------|
D|------------------------------------------------|
A|------------------------------------------------|
E|------------------------------------------------|

e|-9-7-5--9-7-5--10-10-10-10-10-10-10--3-5--5-3-5-|
B|------------------------------------------------|
G|------------------------------------------------|
D|------------------------------------------------|
A|------------------------------------------------|
E|------------------------------------------------|

e|-3------------3------------3------3---|
B|---5-3-0-3-5----5-3-0-3-5----5--5---5-|
G|--------------------------------------|
D|--------------------------------------|
A|--------------------------------------|
E|--------------------------------------|

e|---3-----------3-----------0000000000000-|
B|-5---5-3-0-3-5---5-3-0-3-5---------------|
G|-----------------------------------------|
D|-----------------------------------------|
A|-----------------------------------------|
E|-----------------------------------------|

everything is here except for the order























Related for Ashtray tab