Song name
# A B C D E F G H I J K L M N O P Q R S T U V W X Y Z

Screeching Weasel - Talk To Me Summer tab

I’VE TABBED OUT BOTH GUITAR AND BASS
(the chords above the tabs are the bass)

  PART  1

    F#                         C#           B
E------------------------------------------------|
A------------------------------------------------|
D------------------------------------------------|
G---11------------11-----------11-----------11---|
B-------9---11--------9---11-------9---11--------|
e------------------------------------------------|


    F#                        C#          B
E--------------------------------------------|
A--------------------------------------------|
D--------------------------------------------|
G---11-----------11-----------11----------11-|
B-------9---11-------9---11------9---11------|
e -------------------------------------------|


   B           C#          D#          B
E-------------------------------------------|
A-------------------------------------------|
D-------------------------------------------|
G-—11----------11----------11----------11---|
B-----9---11------9---11------9---11--------|
e-------------------------------------------|


    B           C#          F#
E--------------------------------|
A--------------------------------| (REPEAT
D--------------------------------|  all of
G---11----------11----------11---|  PART 1)
B------9---11------9---11--------|
e--------------------------------|


    PART 2 (note- the (11) is not played the second time)

   F#                   C#
E-------------------------------------------|
A-------------------------------------------|
D------11-----------11-----11------------11-|
G--11-----11-----11-----11-----11-----11----|
B------------11--------------------11-------|
e-------------------------------------------|


   B                       F#
E-----------------------------------------------------|  (repeat
A-----------------------------------------------------|   all of
D------11--------------11------11--------------(11----|-    part 2)
G--11------11------11------11------11------11---------|
B--------------11----------------------11-------------|
e-----------------------------------------------------|

     PART 3

               C#             B             (F#)
E-----------------------------------------------|
A-----------------------------------------------|
D-----------------------------------------------|
G---—11(h)13(p)11---11(h)13(p)11---11(h)13(p)11-|
B-----------------------------------------------|
e-----------------------------------------------|


 *       play this part 4  times             *

   F#                   C#          B
E---------------------------------------------|
A---------------------------------------------|
D--------------------------11----11-----------|
G--11-11-11-11-11-11-11-11--------------------|
B------------------------------------12—11—9--|
e---------------------------------------------|

----- PLAY PART 1 ONE TIME THROUGH------|
------THEN PLAY PART 4 (the ending)-----|

     PART 4 (the ending)

    B              C#            D#           B
E-------------------------------------------------|
A-------------------------------------------------|
D-------------------------------------------------|
G---11-------------11-------------11----------11--|
B-------9---11---------9---11--------9---11-------|
e-------------------------------------------------|


    B            C#           F#
E-------------------------------------|
A-------------------------------------|
D-------------------------------------|
G---11------------------------11------|
B-------9---11-------11---9-----------|
e----------------9--------------------|

   Song: TALK TO ME SUMMER
   Written by: SCREECHING WEASEL
   Tabbed by: YODER (todrunktocare@hotmail.com)
Tap to rate this tab
# A B C D E F G H I J K L M N O P Q R S T U V W X Y Z