Song name
# A B C D E F G H I J K L M N O P Q R S T U V W X Y Z

Screwball - Who Shot Rudy tab

-----------------------------------------------------------------------------
                        Who Shot Rudy? - Screwball
-----------------------------------------------------------------------------
Album:  Y2K
Year: 1999
Tabbed by: Istarii
E-mail: istariimusic@hotmail.com

Tuning: Standard

Figure 1.

e|---------------------------------------|
B|---------------------------------------|
G|---------------------------------------|
D|-6-6-6--4-4--6------6-6-6--4-4--6------|
A|-6-6-6--4-4--6------6-6-6--4-4--6------|
E|-4-4-4--2-2--4------4-4-4--2-2--4------|

                                End Fig. 1

e|---------------------------------------|
B|---------------------------------------|
G|--------------------9-9-9--8-8---------|
D|-6-6-6--4-4--6------9-9-9--8-8--11-----|
A|-6-6-6--4-4--6------7-7-7--6-6--11-----|
E|-4-4-4--2-2--4------------------9------|


Fig. 1 = Verse/Chorus

The g# and f# power chords can be played in a higher register for preference.

http://en.wikipedia.org/wiki/Screwball_%28group%29
Tap to rate this tab
# A B C D E F G H I J K L M N O P Q R S T U V W X Y Z