Song name
# A B C D E F G H I J K L M N O P Q R S T U V W X Y Z

Scribe - Dum Hai Toh Aage Aah tab

-------------------------------------------------------------------------------
			Dum Hai Toh Aage Aa- Scribe
-------------------------------------------------------------------------------
Tabbed by: chaitu
Email: cdrulestheworld@gmail.com

Tuning:BEADGBE(7 String Standard)

Intro: x4
e|---------------------------------------------------------------------------|
B|---------------------------------------------------------------------------|
G|---------------------------------------------------------------------------|
D|---2-x-2-x-2-x----5-x-5-x-5-x---2-x-2-x-2-x---5-x-5-x-5-x------------------|
A|---2-x-2-x-2-x----5-x-5-x-5-x---2-x-2-x-2-x---5-x-5-x-5-x------------------|
E|---0-x-0-x-0-x----3-x-3-x-3-x---0-x-0-x-0-x---3-x-3-x-3-x------------------|
B|---------------------------------------------------------------------------|

Chorus:x2
e|---------------------------------------------------------------------------|
B|---------------------------------------------------------------------------|
G|---------------------------------------------------------------------------|
D|---------------------------------------------------------------------------|
A|--2222222222---5555555555---5555555553----1212121212--77777----------------|
E|--2222222222---5555555555---5555555553----1010101010--77777----------------|
B|--0000000000---3333333333---3333333333----8-8-8-8-8---55555----------------|

Pre-Bridge:
e|------------|
B|------------|
G|------------|
D|------------|
A|---2~-------|
E|---2~-------|
B|---0~-------|

Bridge:-
e|---------------------------------------------------------------------------|
B|---------------------------------------------------------------------------|
G|---------------------------------------------------------------------------|
D|---------------------------------------------------------------------------|
A|---7-7-7-7-7----7-7-7-7-7----12-12---2--5---5-5-5-5------------------------|
E|---7-7-7-7-7----7-7-7-7-7----10-10---2--5---5-5-5-5------------------------|
B|---5-5-5-5-5----5-5-5-5-5----8--8----0--3---3-3-3-3------------------------|


e|---------------------------------------------------------------------------|
B|---------------------------------------------------------------------------|
G|---------------------------------------------------------------------------|
D|---------------------------------------------------------------------------|
A|---7-7-7-7-7----7-7-7-7-7----12-12---2--5---5-5-5-5------------------------|
E|---7-7-7-7-7----7-7-7-7-7----10-10---2--5---5-5-5-5------------------------|
B|---5-5-5-5-5----5-5-5-5-5----8--8----0--3---3-3-3-3------------------------|

Solo:- (Rhythm Guitar Plays The Chorus Riff)
Lead:-
e|---------------------------------------------------------------------------|
B|----------------- 7-7---------------------------------------7-10p7---------|
G|----------------9-----9--------------9-7b-9---------------9----------------|
D|7\9999999999999---------999999999999--------9999999999999-----------9p7-9-9|
A|---------------------------------------------------------------------------|
E|---------------------------------------------------------------------------|
B|---------------------------------------------------------------------------|

e|---------------------------------------------------------------------------|
B|---------------------7-7---------------7-7---------------------------------|
G|-------------------9-----9------------9----99999-7-7-77777-6-6-66666666----|
D|--7\9999999999999--------- 99999999999-----------------------------------9~|
A|---------------------------------------------------------------------------|
E|---------------------------------------------------------------------------|
B|---------------------------------------------------------------------------|

Post Solo:-



e|---------------------------------------------------------------------------|
B|---------------------------------------------------------------------------|
G|---------------------------------------------------------------------------|
D|---------------------------------------------------------------------------|
A|-----22-2-x-2-x-2-x-2-x----------------1010-10-x-10-x-10-x-10-x------------|
E|-----22-2-x-2-x-2-x-2-x----------------1010-10-x-10-x-10-x-10-x------------|
B|-----00-0-x-0-x-0-x-0-x----------------8-8--8-x-8--x-8--x-8--x------------|

e|---------------------------------------------------------------------------|
B|---------------------------------------------------------------------------|
G|---------------------------------------------------------------------------|
D|---------------------------------------------------------------------------|
A|-----99-9-x-9-x-9-x-9-x----------------33-3-x-3-x-3-x-3-x------------------|
E|-----99-9-x-9-x-9-x-9-x----------------33-3-x-3-x-3-x-3-x------------------|
B|-----77-7-x-7-x-7-x-7-x----------------11-1x-1-x-1-x-1-x------------------|


e|---------------------------------------------------------------------------|
B|---------------------------------------------------------------------------|
G|---------------------------------------------------------------------------|
D|---------------------------------------------------------------------------|
A|-----22-2-x-2-x-2-x-2-x----------------1010-10-x-10-x-10-x-10-x------------|
E|-----22-2-x-2-x-2-x-2-x----------------1010-10-x-10-x-10-x-10-x------------|
B|-----00-0-x-0-x-0-x-0-x----------------8-8--8-x-8--x-8--x-8--x------------|

e|---------------------------------------------------------------------------|
B|---------------------------------------------------------------------------|
G|---------------------------------------------------------------------------|
D|---------------------------------------------------------------------------|
A|-----99-9-x-9-x-9-x-9-x----------------33-3-x-3-x-3-x-3-x------------------|
E|-----99-9-x-9-x-9-x-9-x----------------33-3-x-3-x-3-x-3-x------------------|
B|-----77-7-x-7-x-7-x-7-x----------------11-1x-1-x-1-x-1-x------------------|

Pre-Bridge:
e|------------|
B|------------|
G|------------|
D|------------|
A|---2~-------|
E|---2~-------|
B|---0~-------|

Bridge/Outro:-

e|---------------------------------------------------------------------------|
B|---------------------------------------------------------------------------|
G|---------------------------------------------------------------------------|
D|---------------------------------------------------------------------------|
A|---7-7-7-7-7----7-7-7-7-7----12-12---2--5---5-5-5-5------------------------|
E|---7-7-7-7-7----7-7-7-7-7----10-10---2--5---5-5-5-5------------------------|
B|---5-5-5-5-5----5-5-5-5-5----8--8----0--3---3-3-3-3------------------------|


e|---------------------------------------------------------------------------|
B|---------------------------------------------------------------------------|
G|---------------------------------------------------------------------------|
D|---------------------------------------------------------------------------|
A|---7-7-7-7-7----7-7-7-7-7----12-12---2-5~---------------------------------|
E|---7-7-7-7-7----7-7-7-7-7----10-10---2-5~---------------------------------|
B|---5-5-5-5-5----5-5-5-5-5----8--8----0-3~---------------------------------|







************************************

| /   slide up
| \   slide down
| h   hammer-on
| p   pull-off
| ~   Sustain
| +   harmonic
| x   Mute note
| b   Bend
| pb  Pre-bend
| br  Bend release
| pbr Pre-bend release
| brb Bend release bend

************************************
Tap to rate this tab
 
# A B C D E F G H I J K L M N O P Q R S T U V W X Y Z