Song name
# A B C D E F G H I J K L M N O P Q R S T U V W X Y Z

Scum Of The Earth - Get Your Dead On tab

|-intro-----------------------------------------------------------------------|
------------------------------------------------------------------------------|
9---12---14---7/9---9---12---12---7---7---------------------------------------|
|9---12---14---7/9---9---12---12---7---7--------------------------------------|
|7---10---12---5/7---7---10---14---9---5--------------------------------------|
|-----------------------------------------------------------------------------|
riff 1 x2
use wah here i think
|---------------------------------------------------------------------------|
|---------------------------------------------------------------------------|
|---------------------------------------------------------------------------|
|4/5-5-5/7-7-7/9-99--999---4/5-5-5/7-7-7/9-99-------------------------------|
|4/5-5-5/7-7-7/9-99--999---4/5-5-5/7-7-7/9-99-------------------------------|
|2/3-3-3/5-5-5/7-77--777---2/3-3-3/5-5-5/7-77-000---------------------------|
                                              xxx
riff 2 x4
|---------------------------------------------------------------------------|
|---------------------------------------------------------------------------|
|---------------------------------------------------------------------------|
|---------------------------------------------------------------------------|
|---------------------------------------------------------------------------|
|000-00---22-11-------------------------------------------------------------|
 xxx xx   xx xx
riff 1 w/wah x2
|---------------------------------------------------------------------------|
|---------------------------------------------------------------------------|
|---------------------------------------------------------------------------|
|4/5-5-5/7-7-7/9-99-999---4/5-5-5/7-7-7/9-99--------------------------------|
|4/5-5-5/7-7-7/9-99-999---4/5-5-5/7-7-7/9-99--------------------------------|
|2/3-3-3/5-5-5/7-77-777---2/3-3-3/5-5-5/7-77-000----------------------------|
                                             xxx
chorus
|---------------------------------------------------------------------------|
|---------------------------------------------------------------------------|
|---------------------------------------------------------------------------|
|4---7---5---9---4---7---5/9---9--------------------------------------------|
|4---7---5---9---4---7---5/9---9--------------------------------------------|
|2---5---3---7---2---5---3/7---7--------------------------------------------|

riff 1 w/wah x2
|---------------------------------------------------------------------------|
|---------------------------------------------------------------------------|
|---------------------------------------------------------------------------|
|4/5-5-5/7-7-7/9-99-999---4/5-5-5/7-7-7/9-99--------------------------------|
|4/5-5-5/7-7-7/9-99-999---4/5-5-5/7-7-7/9-99--------------------------------|
|2/3-3-3/5-5-5/7-77-777---2/3-3-5/5-5-5/7-77-000----------------------------|
                                             xxx
riff 2 x6
|---------------------------------------------------------------------------|
|---------------------------------------------------------------------------|
|---------------------------------------------------------------------------|
|---------------------------------------------------------------------------|
|---------------------------------------------------------------------------|
|000-00---22-11-------------------------------------------------------------|
 xxx xx   xx xx
riff 1 w/wah x2
|---------------------------------------------------------------------------|
|---------------------------------------------------------------------------|
|---------------------------------------------------------------------------|
|4/5-5-5/7-7-7/9-99-999---4/5-5-5/7-7-7/9-99--------------------------------|
|2/5-5-5/7-7-7/9-99-999---4/5-5-5/7-7-7/9-99--------------------------------|
|2/3-3-3/5-5-5/7-77-777---2/3-3-3/5-5-5/7-77-000----------------------------|
                                             xxx
chorus
|---------------------------------------------------------------------------|
|---------------------------------------------------------------------------|
|---------------------------------------------------------------------------|
|4---7---5---9---4---7---5/9---9--------------------------------------------|
|4---7---5---9---4---7---5/9---9--------------------------------------------|
|2---5---3---7---2---5---3/7---7--------------------------------------------|

riff 3 x4    im not liken this part at all
|--7------6---5---4---------------------------------------------------------|
|5------5---5---5-----------------------------------------------------------|
|---------------------------------------------------------------------------|
|---------------------------------------------------------------------------|
|---------------------------------------------------------------------------|
|---------------------------------------------------------------------------|
chorus x2
|---------------------------------------------------------------------------|
|---------------------------------------------------------------------------|
|---------------------------------------------------------------------------|
|4---7---5---9---4---7---5/9---9--------------------------------------------|
|4---7---5---9---4---7---5/9---9--------------------------------------------|
|2---5---3---7---2---5---3/7---7--------------------------------------------|
outro x4
|9---5-7-3------------------------------------------------------------------|
|7---3-5-1------------------------------------------------------------------|
|---------------------------------------------------------------------------|
|---------------------------------------------------------------------------|
|---------------------------------------------------------------------------|
|---------------------------------------------------------------------------|
Tap to rate this tab
 
# A B C D E F G H I J K L M N O P Q R S T U V W X Y Z