Guitaretab - guitar tabs
Song name
# A B C D E F G H I J K L M N O P Q R S T U V W X Y Z

Scum Of The Earth - Bloodsukinfreakshow tab

____________________________________________________________________________

                 Bloodsukinfreakshow - Scum Of the Earth
____________________________________________________________________________


Tuning: Drop C

|A|(0:07)
|-----------------------------------------------------|
|-----------------------------------------------------|
|-----------------------------------------------------|
|-1-2--1--1--1-2-1-2--1-2-1-2--1-2-1-2--1-2-1-2--1--1-|
|-1-2--1--1--1-2-1-2--1-2-1-2--1-2-1-2--1-2-1-2--1--1-|
|-1-2--1--1--1-2-1-2--1-2-1-2--1-2-1-2--1-2-1-2--1--1-|

|B|(0:19) play twice
|------------------------------------------|
|------------------------------------------|
|------------------------------------------|
|-1-2-1-2--1-2-1-2--1-2-1-2--1-2-1-2--1--1-|
|-1-2-1-2--1-2-1-2--1-2-1-2--1-2-1-2--1--1-|
|-1-2-1-2--1-2-1-2--1-2-1-2--1-2-1-2--1--1-|
[ Tab from: http://www.guitaretab.com/s/scum-of-the-earth/191329.html ]
|C|(0:38) play twice
|----------------------------------------------------------------|
|----------------------------------------------------------------|
|----------------------------------------------------------------|
|-1-2-1-1-1-2-1-2-1-2-1-2-1-1-1-2-1-2-1-2-1-2-1-1-1-2-1-2--------|
|-1-2-1-1-1-2-1-2-1-2-1-2-1-1-1-2-1-2-1-2-1-2-1-1-1-2-1-2--------|
|-1-2-1-1-1-2-1-2-1-2-1-2-1-1-1-2-1-2-1-2-1-2-1-1-1-2-1-2-12-/---|
   PM|-----            PM|-----            PM|-------------------|

|D|(0:56)
|------------------------------------|
|------------------------------------|
|------------------------------------|
|-1-2-1-1-1-1-1-2-1-1-1-1-1-2--1-2---|
|-1-2-1-1-1-1-1-2-1-1-1-1-1-2--1-2---|
|-1-2-1-1-1-1-1-2-1-1-1-1-1-2--1-2---|
   PM|-------  PM|-------------------|

That's all the riffs, just listen to the song to put them in the right order and there 
go, really easy kickass song!
Related for Bloodsukinfreakshow tab