Song name
# A B C D E F G H I J K L M N O P Q R S T U V W X Y Z

Scurvy - Grog Song tab

There are a few probloms but i think most of it is right. I hope this tab will help you because
this has got to be the best Piratecore song ever! If you have any probloms with the tab then email
me so i can fix it
PIRATECORE ROCKS!!

Into/Chorus
e|------------------------------------------------------|
B|------------------------------------------------------|
G|------------------------------------------------------|
D|-1-1-111\6-6-6666--10-10-101010--8-8-8888-------------|
A|-1-1-111\6-6-6666--10-10-101010--8-8-8888-------------|
D|-1-1-111\6-6-6666--10-10-101010--8-8-8888-------------|


VERSE

e|------------------------------------------------------| 2 Times 
B|------------------------------------------------------|Then...          
G|------------------------------------------------------|          
D|--6\1-1-1-1-1-1---------------------------------------|              
A|--6\1-1-1-1-1-1---------------------------------------|              
D|--6\1-1-1-1-1-1---------------------------------------|              
      * * * * * *                                                      
                                PLAY THE WHOLE VERSE 4 TIMES!!          
e|------------------------------------------------------|              
B|------------------------------------------------------|              
G|------------------------------------------------------|              
D|--6\1-1-1-1-1-1---10------8---------------------------|              
A|--6\1-1-1-1-1-1---10------8---------------------------|             
D|--6\1-1-1-1-1-1---10------8---------------------------|          
      * * * * * *   ]-----{ ]-----[
                   Let Ring  Let Ring

And the song goes on like this:

Chorus

Verse

Chorus

Big Verse Breakdown(this time you play the whole verse 8 times)


Little End Breakdown(the sorta last outro notes)
e|-----------------------------------|
B|-----------------------------------|
G|-----------------------------------|
D|-10-----8------1-------------------|
A|-10-----8------1-------------------|
D|-10-----8------1-------------------|
   ]----[ ]----[ ]---------[

        LET RING!!


LIVE AND LET ROCK!!
CHRIS

Band Website: http://www.stillbornrecords.com/2007/index.html
This is the there labels website but it is being fixed but if you need any more info just go to:
http://www.myspace.com/scurvy
Tap to rate this tab
# A B C D E F G H I J K L M N O P Q R S T U V W X Y Z