Song name
# A B C D E F G H I J K L M N O P Q R S T U V W X Y Z

Sea And Cake - Sound And Vision tab

regular tuning

the first part is the walk down they do it sounds like a keyboard but here it is on guitar

e---15-14-12-10-8-7-5-3-5--| x2
a--------------------------|
d--------------------------|
g--------------------------|
b--------------------------|
E--------------------------|

the little riff after the two walk downs

e-----------------------------------------------------|
a-----------------------------------------------------|
d----12-14-16-12-14-16-14-12--12-14-16-14-12-12-16-12-|
g---------------------------14------------------------|
b-----------------------------------------------------|
E-----------------------------------------------------|

e----------------------------------------------------|
a----------------------------------------------------|
d----------------------------------------------------|
g---9-10-12-12-10-9-10-9---12-10-9-10-9--------------|
b------------------------12--------------------------|
E----------------------------------------------------|
                                        don't you wonder...

enjoy
~frizzle
Tap to rate this tab
 
# A B C D E F G H I J K L M N O P Q R S T U V W X Y Z