Song name
# A B C D E F G H I J K L M N O P Q R S T U V W X Y Z

Sea And Cake - Darkest Night tab

The Sea and Cake
Darkest Night

Tabbed By Alex Gorbunov
Standard tuning 

main verse

    Dm7              Cmaj7 
e------------------------------------|
b---------6---------------5----------|
g------5----5---------4-----4--------|
d------------------------------------|
a---5--------------3-----------------|
E------------------------------------|

verse breakdown

    Dm7              Cmaj7 
e---5----5-5---------3~~~----------|
b---6----6-6---------5~~~----------|
g---5----5-5---------4~~~----------|
d---7----7-7---------5~~~----------|
a---5----5-5---------3~~~----------|
E----------------------------------|


solo 1
 
e------------------------------------------------------------|
b------------------------------------------------------------|
g------7h9~~~---7h9~~~---7h9~~~---7h9-7--5-7p5--4-5p4--------|
d-----------------------------------------------------7------|
a------------------------------------------------------------|
E------------------------------------------------------------|

any comments and questions send to planet3@inbox.ru
Tap to rate this tab
 
# A B C D E F G H I J K L M N O P Q R S T U V W X Y Z