Song name
# A B C D E F G H I J K L M N O P Q R S T U V W X Y Z

Sea And Cake - Parasol tab

----------------------------------------------------------------------------
			     Parasol - The Sea and Cake
-------------------------------------------------------------------------------
Tabbed by: Maddy1996

Tuning:Standard

e|-------------------------------------------------------------------------|
B|--12-12-12-12-12-12-12-12-7-7-7-7-7-7-7-7-5-5-5-5-5-5-5-5-12-12-12-12-12-|
G|--13-13-13-13-13-13-13-13-8-8-8-8-8-8-8-8-6-6-6-6-6-6-6-6-13-13-13-13-13-|
D|-------------------------------------------------------------------------|
A|--11-11-11-11-11-11-11-11-6-6-6-6-6-6-6-6-4-4-4-4-4-4-4-4-11-11-11-11-11-|
E|-------------------------------------------------------------------------|

e|--------------------------------------------------------------------------|
B|-12-12-12-7-7-7-7-7-7-7-7-5-5-5-5-5-5-5-5---------------------------------|
G|-13-13-13-8-8-8-8-8-8-8-8-6-6-6-6-6-6-6-6---------------------------------|
D|--------------------------------------------------------------------------|
A|-11-11-11-6-6-6-6-6-6-6-6-4-4-4-4-4-4-4-4---------------------------------|
E|--------------------------------------------------------------------------|

It basicaly repeats itself for a while untill it gets into the chorus.

************************************
Ever since the remember me soundtrack has been released i have been obsessed with this song!!
 I couldn't find it anywhere but after watching a live performance of The Sea and Cake 
youtube.
I managed to work out the basic chords.The only problem is that i carnt work out the rest,
so it would be greatly appreciated if someone knows it and if they could help me out.
This is my first tab so sorry if it is crap. Thank you!!
Tap to rate this tab
 
# A B C D E F G H I J K L M N O P Q R S T U V W X Y Z