Song name
# A B C D E F G H I J K L M N O P Q R S T U V W X Y Z

Sea Of Treachery - Purging Of The Wicked tab

Song: Purging Of The Wicked
Band: Sea Of Treachery

Tuning: Drop C (C G C F A D)

Tabbed by: Aaron Stinson
E-Mail: Arsenik92@live.com

-----------------------

PM or - = palm mute
T = tremolo pick
~ = hold note
* = harmonic
b = bend
x = silent/muted
h = hammer-on
p = pull-off

-----------------------


Intro I( : - : ) play four times

Guitars I, II
|--------------------------------|
|--------------------------------|
|--------------------------------|
|--------------------------------|
|-000-000-000-00--0-00000--0000--|
|-000-000-000-00--0-00000--0000--|
PM--- --- --- --  - -----  ----

Intro II ( : - : ) play four times

Guitars I, II
|---------------------------|
|---------------------------|
|---------------------------|
|---------------------------|
|-0--0--000-00--0-00000--0--|
|-0--0--000-00--0-00000--0--|
PM-  -  --- --  - -----  -

( : - : )

Guitar I
|------------------------------------|
|------------------------------------|
|------------------------------------|
|------------------------------------|
|-----5---8---7p5-----8h10-----12\---|
|-0-0---0---0-----0-0------0-0-------|
PM- -   -   -     - -      - -

Guitar II
|------------------------------------|
|------------------------------------|
|------------------------------------|
|-0~---------------------------------|
|-0~---------------------------------|
|-0~---------------------------------|

(contd.)
Guitar I
|---------------------------------|
|---------------------------------|
|---------------------------------|
|---------------------------------|
|-----10---8---7------5---7---8---|
|-8-8----8---8----5-5---5---5-----|
PM- -    -   -    - -   -   -

Guitar II
|----------------------------------------|
|----------------------------------------|
|----------------------------------------|
|-8~--------------5~---------------------|
|-8~--------------5~---------------------|
|-8~--------------5~---------------------|

( : - : )

Guitar I
|------------------------------------|
|------------------------------------|
|------------------------------------|
|------------------------------------|
|-----5---8---7p5-----8h10-----12\---|
|-0-0---0---0-----0-0------0-0-------|
PM- -   -   -     - -      - -

Guitar II
|------------------------------------|
|------------------------------------|
|------------------------------------|
|------------------------------------|
|-0-0--------------------------------|
|-0-0--------------------------------|
PM- -

(contd.)
Guitar I
|---------------------------------|
|---------------------------------|
|---------------------------------|
|---------------------------------|
|-----10---8---7------5---7---8---|
|-8-8----8---8----5-5---5---5-----|
PM- -    -   -    - -   -   -

Guitar II
|---------------------------------|
|---------------------------------|
|---------------------------------|
|-------------------------5---7---|
|-8-8-----------------8-----------|
|-8-8-------------5-5---5---5-----|
PM                - -   -   -

Verse I ( : - : ) play twice

Guitars I, II
|------------------------------------|
|------------------------------------|
|------------------------------------|
|------------------------------------|
|-----5---8---7p5-----8h10-----12\---|
|-0-0---0---0-----0-0------0-0-------|
PM- -   -   -     - -      - -

|---------------------------------|
|---------------------------------|
|---------------------------------|
|---------------------------------|
|-----10---8---7------5---7---8---|
|-8-8----8---8----5-5---5---5-----|
PM- -    -   -    - -   -   -

( : - : )

Guitars I, II
|--------------------------|x2
|--------------------------|
|--------------------------|
|--------------------------|
|-----5---8---7p5-000--00--|
|-0-0---0---0-----000--00--|
PM- -   -   -     ---  --

(contd.)
Guitar I
|---------------------------|x2
|---------------------------|
|---------------------------|
|---------5---10\-----------|
|-----8-----------000--00---|
|-0-0---0---0-----000--00---|
PM- -   -   -     ---  --

Guitar II
|--------------------------|
|--------------------------|
|--------------------------|
|--------------------------|
|-----5---7---8\-000--00---|
|-0-0---0---0----000--00---|
PM- -   -   -    ---  --

Second time, both guitars end on:
|---------------|
|---------------|
|---------------|
|---------------|
|-8~-----5~-----|
|-8~-----5~-----|

Chorus ( : - : ) play twice

Guitar I
|--------------------------------|
|--------------------------------|
|--------------------------------|
|--------------------------------|
|------8---7h8--------8---8s7----|
|-8--8---8-----8-5--5---5-----5--|
PM   -   -     -    -   -     -

Guitar II
|--------------------------------|
|--------------------------------|
|--------------------------------|
|--------------------------------|
|------8---7h8--------8---8s7----|
|-8--8---8-----8-5--5---5-----5--|
PM   -   -     -    -   -     -

(contd.)
Guitar I
|-----------------------------------------|
|-----------------------------------------|
|-----------------------------------------|
|-----------------------------------------|
|--------10----8h10---------13---12---10--|
|-10--10----10------10-0--0----0----0-----|
PM    --    --      --    -     -    -

Guitar II
|---------------------------------------|
|---------------------------------------|
|---------------------------------------|
|---------------------------------------|
|--------10----8h10---------10---8---7--|
|-10--10----10------10-0--0----0---0----|
PM    --    --      --    -     -   -

( : - : )

Guitar I
|--------------------------------|
|--------------------------------|
|--------------------------------|
|--------------------------------|
|------8---7h8--------8---8s7----|
|-8--8---8-----8-5--5---5-----5--|
PM   -   -     -    -   -     -

Guitar II
|--------------------------------|
|--------------------------------|
|--------------------------------|
|------7---5h7--------7---7s5----|
|--------------------------------|
|-8--8---8-----8-5--5---5-----5--|
PM   -   -     -    -   -     -

(contd.)
Guitar I
|-----------------------------------------|
|-----------------------------------------|
|-----------------------------------------|
|-----------------------------------------|
|--------10----8h10---------13---12---10--|
|-10--10----10------10-0--0----0----0-----|
PM    --    --      --    -     -    -

Guitar II
|-------------------------------------|
|-------------------------------------|
|-------------------------------------|
|--------8----7h8---------------------|
|-------------------------10---8---7--|
|-10--10---10-----10-0--0----0---0----|
PM    --   --     --    -     -   -

( : - : )

|----------------------|
|----------------------|
|----------------------|
|-8~~-----5~~----------|
|-8~~-----5~~----------|
|-8~~-----5~~------12\-|

Re-Intro ( : - : ) play twice

Guitars I, II
|---------------------------|x4
|---------------------------|
|---------------------------|
|---------------------------|
|-0--0--000-00--0-00000--00-|
|-0--0--000-00--0-00000--00-|
PM-  -  --- --  - -----  --

both end on this fourth time
|---------|
|---------|
|---------|
|-8--10---|
|-8--10---|
|-8--10---|

( : - : ) play three times

Guitar I
|---------------------------------|
|---------------------------------|
|---------------------------------|
|---------------------------------|
|-0-------------------------------|
|-0--0-000-000-000-000-000-000-0--|
PM   - --- --- --- --- --- --- -

Guitar II
|---------------------------------|
|---------------------------------|
|---------------------------------|
|---------------------------------|
|-0-------------------------------|
|-0------------------------0-0-0--|
PM                         - - -

(contd.)
Guitars I, II
|----------------------------------------------------|
|----------------------------------------------------|
|----------------------------------------------------|
|----------------------------------------------------|
|-10-------------------------------------------------|
|-10--10--101010-101010-101010-101010-101010-101010--|
PM    --  ------ ------ ------ ------ ------ ------

(contd.)
|--------------------------------|
|--------------------------------|
|--------------------------------|
|--------------------------------|
|-7------------------------------|
|-7--7--777-777-777-777-777-777--|
PM   -  --- --- --- --- --- ---

(contd.)
Guitar I
|----------------------------------------------------|
|----------------------------------------------------|
|----------------------------------------------------|
|------------------7777------------------------------|
|-8--8888-10101010------10101010-8888-10101010-8888--|
|-8--------------------------------------------------|

Guitar II
|--------------------------------------------|
|--------------------------------------------|
|--------------------------------------------|
|------------------7777-8888-7777-8888-7777--|
|-8--8888-10101010---------------------------|
|-8------------------------------------------|

( : - : )

Guitar I
|------------------|
|------------------|
|------------------|
|------------------|
|-0-0-0-0-0--------|
|-0-0-0-0-0--3*~---|
PM- - - - -

Guitar II
|------------------|
|------------------|
|------------------|
|------------------|
|-0-0-0-0-0--3*~---|
|-0-0-0-0-0--------|
PM- - - - -

Verse II( : - : )

Guitars I, II
|------------------------------------|
|------------------------------------|
|------------------------------------|
|------------------------------------|
|-----5---8---7p5-----8h10-----12\---|
|-0-0---0---0-----0-0------0-0-------|
PM- -   -   -     - -      - -

|---------------------------------|
|---------------------------------|
|---------------------------------|
|---------------------------------|
|-----10---8---7------5---7---8---|
|-8-8----8---8----5-5---5---5-----|
PM- -    -   -    - -   -   -

second time, end on:
|----------|
|----------|
|----------|
|----------|
|-8-8--5-5-|
|-8-8--5-5-|
PM- -  - -

( : - : )

Guitar I
|------------------------------------|
|------------------------------------|
|------------------------------------|
|------------------------------------|
|-----5---8---7p5-----8h10-----12\---|
|-0-0---0---0-----0-0------0-0-------|
PM- -   -   -     - -      - -

|---------------------------------|
|---------------------------------|
|---------------------------------|
|---------------------------------|
|-----10---8---7------5---7---8---|
|-8-8----8---8----5-5---5---5-----|
PM- -    -   -    - -   -   -

Guitar II
|-----------------------------------|
|-----------------------------------|
|-----------------------------------|
|-----3---7---5p3-----7h8-----10\---|
|-----------------------------------|
|-0-0---0---0-----0-0-----0-0-------|
PM- -   -   -     - -     - -

|--------------------------------|
|--------------------------------|
|--------------------------------|
|-----8---7---5----------5---7---|
|--------------------8-----------|
|-8-8---8---8----5-5---5---5-----|
PM- -   -   -    - -   -   -

( : - : )

Guitar I
|----------------------------------------|
|----------------------------------------|
|----------------------------------------|
|----------------------------------------|
|-000-000-------------------000-3b*------|
|-000-000------------(bass)-000----------|
PM--- ---                   ---

Guitar II
|------------------------------------|
|------------------------------------|
|------------------------------------|
|------------------------------------|
|----------000-000----------000------|
|----------000-000---(bass)-000-3b*--|
PM         --- ---          ---

( : - : ) play twice

Guitars I, II
|---------------------------------|
|---------------------------------|
|---------------------------------|
|---------------------------------|
|-000-000-000-000-------5-8-7-4*--|
|-000-000-000-000-0-5-8-----------|
PM--- --- --- --- - - - - -

(contd.)
|----------------------------------|
|----------------------------------|
|----------------------------------|
|----------------------------------|
|-000-000-000-000-8-----7---5-4----|
|-000-000-000-000---5-0---4-----7--|
PM--- --- --- ---   - -   -     -

Breakdown ( : - : )

Guitars I, II
|---------------------------------------------------|
|---------------------------------------------------|
|---------------------------------------------------|
|---------------------------------------------------|
|-000-000-000-000-5555555588888888-4-4-4-4-7-7-7-7--|
|-000-000-000-000-----------------------------------|
PM--- --- --- ---                  - - - - - - - -

|---------------------------------------------------|
|---------------------------------------------------|
|---------------------------------------------------|
|---------------------------------------------------|
|-000-000-000-000-8888888855555555-7-7-7-7-4-4-4-4--|
|-000-000-000-000-----------------------------------|
PM--- --- --- ---                  - - - - - - - -

(contd.)
Guitars I, II
|---------------------------------------------------|
|---------------------------------------------------|
|---------------------------------------------------|
|---------------------------------------------------|
|-000-000-000-000-55555555888888884444444477777777--|
|-000-000-000-000-----------------------------------|
PM--- --- --- ---                  - - - - - - - -

|---------------------------------------------------|
|---------------------------------------------------|
|---------------------------------------------------|
|---------------------------------------------------|
|-000-000-000-000-88888888555555557777777744444444--|
|-000-000-000-000-----------------------------------|
PM--- --- --- ---

Chorus ( : - : ) play twice

Guitar I
|--------------------------------|
|--------------------------------|
|--------------------------------|
|--------------------------------|
|------8---7h8--------8---8s7----|
|-8--8---8-----8-5--5---5-----5--|
PM   -   -     -    -   -     -

Guitar II
|--------------------------------|
|--------------------------------|
|--------------------------------|
|--------------------------------|
|------8---7h8--------8---8s7----|
|-8--8---8-----8-5--5---5-----5--|
PM   -   -     -    -   -     -

(contd.)
Guitar I
|-----------------------------------------|
|-----------------------------------------|
|-----------------------------------------|
|-----------------------------------------|
|--------10----8h10---------13---12---10--|
|-10--10----10------10-0--0----0----0-----|
PM    --    --      --    -     -    -

Guitar II
|---------------------------------------|
|---------------------------------------|
|---------------------------------------|
|---------------------------------------|
|--------10----8h10---------10---8---7--|
|-10--10----10------10-0--0----0---0----|
PM    --    --      --    -     -   -

( : - : )

Guitar I
|--------------------------------|
|--------------------------------|
|--------------------------------|
|--------------------------------|
|------8---7h8--------8---8s7----|
|-8--8---8-----8-5--5---5-----5--|
PM   -   -     -    -   -     -

Guitar II
|--------------------------------|
|--------------------------------|
|--------------------------------|
|------7---5h7--------7---7s5----|
|--------------------------------|
|-8--8---8-----8-5--5---5-----5--|
PM   -   -     -    -   -     -

(contd.)
Guitar I
|------------------------------------|
|------------------------------------|
|------------------------------------|
|------------------------------------|
|--------10----8h10------8-8---5-5---|
|-10--10----10------10---8-8---5-5---|
PM    --    --      --   - -   - -

Guitar II
|----------------------------------|
|----------------------------------|
|----------------------------------|
|--------8----7h8------------------|
|----------------------8-8---5-5---|
|-10--10---10-----10---8-8---5-5---|
PM    --   --     --   - -   - -

Interlude ( : - : )

Guitar I
|--------------------------------|
|--------------------------------|
|--------------------------------|
|-8~-------------------5~--------|
|-8~---10---8---8h10~--5~--------|
|-8~------8---8--------5~--------|

Guitar II
|--------------------------------|
|--------------------------------|
|--------------------------------|
|-8~-------------------5~--------|
|-8~-------------------5~--------|
|-8~-------------------5~--------|

Solo (all credit to gofusiesbass09, used for completedness of tab)

D----------------------------------------------------------------------------------|
A------------------------------15--------------------------------------------------|
F----------------14-12^r--12^^----12v--10h12p10------------------------------------|
C-7/10-10/12-12---------------------------------10/12-12-12-15-15-14-14-15-15------|
G----------------------------------------------------------------------------------|
C----------------------------------------------------------------------------------|


D----13------------------------------------------------------------------------------------|
A-15^--15v-13h15p13------------------------------------------------------------------------|
F-------------------15\13------------------------------------------------------------------|
C-------------------------15p14-14/15-151515-1414-15-15-15-15-1717-15-14-15-14h15p14-------|
G------------------------------------------------------------------------------------15----|
C------------------------------------------------------------------------------------------|


D-------------------------------------------------------------------------------|
A-------------------5h6h8-6v--666-55h6-6/8-888-7-8-8*-6p5/6---------------------|
F-------------5h7h8-------------------------------------------------------------|
C-------5h7h8-------------------------------------------------------------------|
G-5h7h8-------------------------------------------------------------------------|
C-------------------------------------------------------------------------------|
  . . . . . . . . .

D-----------------------------------------------------------------| (added by me)
A-13-13-13-11-10-11-10----10--------------------------------------|
F----------------------12----12-10-12-10-9-10-9----9--------------|
C-----------------------------------------------12---12-10-10/12~-|
G-----------------------------------------------------------------|
C-----------------------------------------------------------------|

D--------------------------------------------------------------------------------------|
A--------------------------------------------------------------------------------------|
F-12^r----12^r----12^r----12^r-------------------------------14h15h17-15-14-15p14v-----|
C------15------15------15------15-14h15p14-------14-15-17-15---------------------------|
G------------------------------------------15-15---------------------------------------|
C--------------------------------------------------------------------------------------|


D------13---------------------------------------------------------------------------------------|
A-15^^----15v-13h15p13--------------------------------------------------------------------------|
F----------------------15\13-13/15--------------------------------------------------------------|
C----------------------------------15--151515-14-14h15-15-15-15-17-17-15-15-14-14h15p14------(0)|
G---------------------------------------------------------------------------------------15---(0)|
C--------------------------------------------------------------------------------------------(0)|


that should be the jist of it.


Tap to rate this tab
# A B C D E F G H I J K L M N O P Q R S T U V W X Y Z