Song name
# A B C D E F G H I J K L M N O P Q R S T U V W X Y Z

Sea Of Treachery - And The Angels Were Silent tab

Fun song by an awesome band. There's barely any SOT tabs here,
so I thought I'd try to help. This is my first attempt at ever
tabbing anything, so feedback is welcome. CONSTRUCTIVE CRITICISM,
not just plain criticism please :) And, I know that the interludal part is
off, but it's somewhere in that area, sorry.

TITLE: And The Angels Were Silent
BAND: Sea Of Treachery
ALBUM: At Daggers Drawn

LEGEND:

p = pull-off
h = hammer-on
X = dead note
* = pinch harmonic
' = tremolo picked
/ = Slide
~ = Vibrato

|---------------------------------------------------------|
|---------------------------------------------------------|
|---------------------------------------------------------|
|---------------------------------------------------------| x4
|-0-----10p8p7-0-------8h10-10h12-0-----10p8p7-------10-8-|
|-0-0-0--------0-0-0-0------------0-0-0--------0-0-0-10-8-|

|---------------------------------------------------|
|---------------------------------------------------|
|-10-------17------19------17------15---------------|
|-X--x16---X--x6---X--x2---X--x4---X--x4------------|
|-8--------15------17------15------13---------------|
|---------------------------------------------------|

|---------------------------------------------------|
|---------------------------------------------------|
|-10-------17------19------17-----------------------|
|-X--x16---X--x6---X--x2---X--x8--------------------|
|-8--------15------17------15-----------------------|
|---------------------------------------------------|

|---------------------------------------------------|
|---------------------------------------------------|
|-10-------17------19------17------15---------------|
|-X--x16---X--x6---X--x2---X--x4---X--x4------------|
|-8--------15------17------15------13---------------|
|---------------------------------------------------|

|---------------------------------------------------|
|---------------------------------------------------|
|-10-------17------19---17--------------------------|
|-X--x16---X--x6---X----X---------------------------|
|-8--------15------17---15---------------8h10-10h12-|
|---------------------------------------------------|

|-----------------------------------------------------------|
|-----------------------------------------------------------|
|-----------------------------------------------------------|\
|-----------------------------------------------------------| \
|-0-----10p8p7-0-------8h10-10h12-0-----10p8p7-------10-8---|  \
|-0-0-0--------0-0-0-0------------0-0-0--------0-0-0-10-8---|   \
							         x2	
|-----------------------------------------------------------|   /
|-----------------------------------------------------------|  /
|-----------------------------------------------------------| /
|------------------------------7*---------------------------|/
|-0-----10p8p7-0-------8h10h12----0-----10p8p7-0-------10-8-|
|-0-0-0--------0-0-0-0------------0-0-0--------0-0-0-0-10-8-|

|--------------------------------------------------------|
|--------------------------------------------------------|
|--------------------------------------------------------|
|--------------------------------------8888-7777-5555-77-| x3
|-0---5---5h7-5---7---7h8-8---8---8h10-------------------|
|-0-0---0-----5-5---5-----8-8---8------------------------|

|---------------------------------------------------|
|---------------------------------------------------|
|---------------------------------------------------|
|---------------------------------------------------|
|-0---5---5h7-5---7---7h8---8-----------5-----------|
|-0-0---0-----5-5---5-------8-8-8-8-8-8-5-5-5-5-5-5-|

|--------------------------------------------------------|
|--------------------------------------------------------|
|--------------------------------------------------------|
|--------------------------------------8888-7777-5555-77-| x3
|-0---5---5h7-5---7---7h8-8---8---8h10-------------------|
|-0-0---0-----5-5---5-----8-8---8------------------------|

|------------------------------------------------|
|------------------------------------------------|
|------------------------------------------------|
|------------------------------------------------|
|-0---5---5h7-5---7---7h8--0~~~------------------|
|-0-0---0-----5-5---5------0~~~------------------|

|------------------------------------------------|
|------------------------------------------------|
|------------------------------------------------|
|------------------------------------------------| x3
|-00000000-0---------------00000000-0------------|
|-00000000-0---------------00000000-0------------|

|------------------------------------------------|
|------------------------------------------------|
|------------------------------------------------|
|------------------------------------------------|
|-00000000-0--------------8-5-7-4-6-3-5-2--------|
|-00000000-0--------------8-5-7-4-6-3-5-2--------|

|----------------------------------------------------|
|----------------------------------------------------|
|----------------------------------------------------|
|----------------------------------------------------|
|-00000000-6h9p6h9p6h9p6h9--00000000-5h8p5h8p5h8p5h8-|
|-00000000------------------00000000-----------------|

|----------------------------------------------------|
|----------------------------------------------------|
|----------------------------------------------------|
|----------------------------------------------------|
|-00000000-6h9p6h9p6h9p6h9--00000000-----------------|
|-00000000------------------00000000-----------------|

|----------------------------------------------------|
|----------------------------------------------------|
|----------------------------------------------------|
|----------------------------------------------------|
|-00000000-6h9p6h9p6h9p6h9--00000000-5h8p5h8p5h8p5h8-|
|-00000000------------------00000000-----------------|

|----------------------------------------------------|
|----------------------------------------------------|
|----------------------------------------------------|
|----------------------------------------------------|
|-00000000-6h9p6h9p6h9p6h9--8-5-7-4-10-7-9-6---------|
|-00000000-------------------------------------------|

|---------------------------------------------------------------|
|------11------------13-------------15--------------------------|
|---10----10------12----12-------14----14-----15-14-12-14-12-10-|\
|-8----------8/10----------10/12----------12--------------------| \ 
|---------------------------------------------------------------|  \
|---------------------------------------------------------------|   \
								     x2
|---------------------------------------------------------------|   /
|------10------------13-------------15--------------------------|  /
|---10----10------12----12-------14----14-----15-14-12-14-12-10-| /
|-8----------8/10----------10/12----------12--------------------|/
|---------------------------------------------------------------|
|---------------------------------------------------------------|

|---------------------------------------------------------------|
|------11--------13--------15-------11--------13-----------15~~-|
|---10--------12--------14-------------10--------12-----14------|
|-8--------10--------12-----------8--------10--------12---------|
|---------------------------------------------------------------|
|---------------------------------------------------------------|

|-----------------------------------------------------------|
|-----------------------------------------------------------|
|-----------------------------------------------------------|
|-----------------------------------------------------------| x2
|-0-0-0-000---------0-0-0-000---------0-0-0-000-------------|
|-0-0-0-000---------0-0-0-000---------0-0-0-000-------------|

|-----------------------------------------------------------|
|-----------------------------------------------------------|
|-----------------------------------------------------------|
|-----------------------------------------------------------|
|-0-0-0-000---------0-0-0-7h8p7p5-10p8p7h8------------------|
|-0-0-0-000---------0-0-0-----------------------------------|

|---------------------------------------------------------------|
|---------------------------------------------------------------|
|---------------------------------------------------------------|
|---------------------------------------------------------------| x3
|-0-0-0-000----0-0-0-000----0-0-0-000----0-0-0-7h8p7p5-10p8p7h8-|
|-0-0-0-000----0-0-0-000----0-0-0-000----0-0-0------------------|

|-----------------------------------------------------------|
|-----------------------------------------------------------|
|-----------------------------------------------------------|\
|-----------------------------------------------------------| \
|-0-----10p8p7-0-------8h10-10h12-0-----10p8p7-------10-8---|  \
|-0-0-0--------0-0-0-0------------0-0-0--------0-0-0-10-8---|   \
							         x2	
|-----------------------------------------------------------|   /
|-----------------------------------------------------------|  /
|-----------------------------------------------------------| /
|------------------------------7*---------------------------|/
|-0-----10p8p7-0-------8h10h12----0-----10p8p7-0-------10-8-|
|-0-0-0--------0-0-0-0------------0-0-0--------0-0-0-0-10-8-|

|-------------------------------------------------------|
|-------------------------------------------------------|
|-------------------------------------------------------|
|-------------------------------------------------------|
|-7-------------7-------------7-------------7----5-0----|
|-7-7-7-7-7-7-7-7-7-7-7-7-7-7-7-7-7-7-7-7-7-7----5-0----|

|-------------------------------------------------------|
|-------------------------------------------------------|
|-------------------------------------------------------|
|-------------------------------------------------------| x4
|-7'--8'-10'-8'--10'-12'-10'--8'-7'-8'-7'-5'-7'---------|
|-------------------------------------------------------|

|-------------------------------------------------------|
|-------------------------------------------------------|
|-------------single notes------------------------------|
|-------------------------------------------------------| x4
|-7--8-10-8--10-12-10--8-7-8-7-5-7----------------------|
|-------------------------------------------------------|

|---------------------------------------------------------------|
|------11------------13-------------15--------------------------|
|---10----10------12----12-------14----14-----15-14-12-14-12-10-|\
|-8----------8/10----------10/12----------12--------------------| \ 
|---------------------------------------------------------------|  \
|---------------------------------------------------------------|   \
								     x2
|---------------------------------------------------------------|   /
|------10------------13-------------15--------------------------|  /
|---10----10------12----12-------14----14-----15-14-12-14-12-10-| /
|-8----------8/10----------10/12----------12--------------------|/
|---------------------------------------------------------------|
|---------------------------------------------------------------|

|-------------------------------------------------------|
|---11-------------13----------15~~~-fade out-----------|
|------10-------12----------14--------------------------|
|-8----------10----------12-----------------------------|
|-------------------------------------------------------|
|-------------------------------------------------------|
Tap to rate this tab
# A B C D E F G H I J K L M N O P Q R S T U V W X Y Z