Song name
# A B C D E F G H I J K L M N O P Q R S T U V W X Y Z

Sea Of Treachery - I Never Was A White Picket Fence Sorta Guy tab

This tab took a while for me because I couldn't get some parts of it right... I 
asked Billybusa for help on the riff
that starts at about 2:17 and he came up with a great way to play it, so thank you 
very much :) Anyone reading this, 
check out Billybusa's tabs, which include most of the other Sea Of Treachery 
songs! So yeah.. fun, easy song to play,
have fun. Please comment and rate this tab, and provide any suggestions or corrections!

TUNING: Drop C

TITLE: I Never Was A White Picket Fence Sorta Guy
BAND: Sea Of Treachery
ALBUM: At Daggers Drawn

LEGEND:

p = pull-off
h = hammer-on
* = pinch harmonic
" = tremolo picked
/ = slide
~ = vibrato(hold note)

|------------------------------------------------------------------------|
|------------------------------------------------------------------------|
|------------------------------------------------------------------------|
|------------------------------------------------------------------------|\
|-----7---8---7h8p7-----10---8---7h8p7-----8---7---7h8p7-----8---7---5---| \
|-0-0---0---0-------0-0----0---0-------7-7---7---7-------5-5---5---5-----|  \
									     	
|------------------------------------------------------------------------|  /x3
|------------------------------------------------------------------------| /
|------------------------------------------------------------------------|/
|------------------------------------------------------------------------|
|-----7---8---7h8p7-----10---8---7h8p7-----8---7---7h8p7-----7h8-----5h7-|
|-0-0---0---0-------0-0----0---0-------7-7---7---7-------5-5-----0-0-----|

|-----------------------------------------------------------------|
|-----------------------------------------------------------------|
|-----------------------------------------------------------------|
|-----------------------------------------------------------------| x2
|-----7---8-----8---10---8---7~-------7---8-----7"-8"-7"-5"-------|
|-0-0---0---0-0---0----0---0-----0-0---0----0-0-------------------|

|-----------------------------------------------------------------|
|-----------------------------------------------------------------|
|-----------------------------------------------------------------|
|-----------------------------------------------------------------| x2
|-----7"-8-----8"-10"-8"-7"-----7"-8-----7"-8"-7"-5"--------------|
|-0-0------0-0--------------0-0------0-0--------------------------|

|------------------------------------------------------------------------|
|------------------------------------------------------------------------|
|------------------------------------------------------------------------|
|------------------------------------------------------------------------|\
|-----7---8---7h8p7-----10---8---7h8p7-----8---7---7h8p7-----8---7---5---| \
|-0-0---0---0-------0-0----0---0-------7-7---7---7-------5-5---5---5-----|  \
									     
|------------------------------------------------------------------------|  /x2
|------------------------------------------------------------------------| /
|------------------------------------------------------------------------|/
|------------------------------------------------------------------------|
|-----7---8---7h8p7-----10---8---7h8p7-----8---7---7h8p7-----7h8-----5h7-|
|-0-0---0---0-------0-0----0---0-------7-7---7---7-------5-5-----0-0-----|

|-----------------------------------------------------------------|
|-----------------------------------------------------------------|
|-----------------------------------------------------------------|
|-----------------------------------------------------------------|
|-0-0~-0~~-0~~~-0~~~~-0~~~~~-0~~~~~~-0~~~~~~~---------------------|
|-0-0~-0~~-0~~~-0~~~~-0~~~~~-0~~~~~~-0~~~~~~~---------------------|

|------------------------------------------------------------------|
|------------------------------------------------------------------|
|------------------------------------------------------------------|
|------------------------------------------------------------------|x4
|-0-0-0--000-000--0-0-0--0-0-0-0----0-0-0--000-000--0-0-0--0-0-0-0-|
|-0-0-0--000-000--0-0-0--0-0-0-0----0-0-0--000-000--0-0-0--0-0-0-0-|

|-----------------------------------------------------------------|
|-----------------------------------------------------------------|
|-----------------------------------------------------------------|
|-----------------------------------------------------------------|\
|-7h8-------------7h8-----5h7-----3h5-----------------------------| \
|-----0-0-0-0-0-0-----0-0-----0-0-----0-0-0-0-0-0-----------------|  \
								      
|-----------------------------------------------------------------|    \
|-----------------------------------------------------------------|     \
|-----------------------------------------------------------------|      \
|-----------------------------------------------------------------|       \
|-7h8-----5h7-----8h10-------------7h8-----5h7--8~~-5~~-----------|        \
|-----0-0-----0-0------0-0-0-0-0-0-----0-0------8~~-5~~-----------|         \
									     
|-----------------------------------------------------------------|         /x2
|-----------------------------------------------------------------|        /
|-----------------------------------------------------------------|       / 
|-----------------------------------------------------------------|      /
|-7h8-------------7h8-----5h7-----3h5-----------------------------|     /
|-----0-0-0-0-0-0-----0-0-----0-0-----0-0-0-0-0-0-----------------|    /
								      
|-----------------------------------------------------------------|  /
|-----------------------------------------------------------------| /
|-----------------------------------------------------------------|/
|------------------------------------------------------7*---------|
|-7h8-----5h7-----8h10-------------7h8-----5h7--8~~-5~------------|
|-----0-0-----0-0------0-0-0-0-0-0-----0-0------8~~-5~------------|

|-----------------------------------------------------------------|
|-----------------------------------------------------------------|
|-----------------------------------------------------------------|
|-----------------------------------------------------------------|\
|-0---------------------------0-----------------------------------| \
|-0-0-0-3p0-0-0-3p0-0-0-5h6p0-0-0-0-0-3p0-0-0-3p0-0-0-5h6p0-------|  \
								      
|-----------------------------------------------------------------|  /x4
|-----------------------------------------------------------------| / 
|-----------------------------------------------------------------|/
|-----------------------------------------------------------------|
|-0---------------------------6~-6--6-6--3~-3--3/5----------------|
|-0-0-0-3p0-0-0-3p0-0-0-5h6p0-6~-6--6-6--3~-3--3/5----------------|

|------------------------------------------------------------------------|
|------------------------------------------------------------------------|
|------------------------------------------------------------------------|
|--------------------------------------------------------------------7*--|\
|-----7---8---7h8p7-----10---8---7h8p7-----8---7---7h8p7-----8---7-------| \
|-0-0---0---0-------0-0----0---0-------7-7---7---7-------5-5---5---5-----|  \
									     	
|------------------------------------------------------------------------|  /x2
|------------------------------------------------------------------------| /
|------------------------------------------------------------------------|/
|------------------------------------------------------------------------|
|-----7---8---7h8p7-----10---8---7h8p7-----8---7---7h8p7-----7h8-----5h7-|
|-0-0---0---0-------0-0----0---0-------7-7---7---7-------5-5-----0-0-----|

|-----------------------------------------------------------------|
|-----------------------------------------------------------------|
|-----------------------------------------------------------------|
|-----------------------------------------------------------------|
|-000000000--000000000--000000000--000000000----------------------|
|-000000000--000000000--000000000--000000000----------------------|

|-----------------------------------------------------------------|
|-----------------------------------------------------------------|
|-----------------------------------------------------------------|
|-----------------------------------------------------------------| x4
|-000000000--000-0-0-000-0-0--000000000--000-0-0-000-0-0----------|
|-000000000--000-0-0-000-0-0--000000000--000-0-0-000-0-0----------|

|------------------------------------------------------------------------|
|------------------------------------------------------------------------|
|------------------------------------------------------------------------|
|--------------------------------------------------------------------7*--|\
|-----7---8---7h8p7-----10---8---7h8p7-----8---7---7h8p7-----8---7-------| \
|-0-0---0---0-------0-0----0---0-------7-7---7---7-------5-5---5---5-----|  \
									     	
|------------------------------------------------------------------------|  /x2
|------------------------------------------------------------------------| /
|------------------------------------------------------------------------|/
|------------------------------------------------------------------------|
|-----7---8---7h8p7-----10---8---7h8p7-----8---7---7h8p7-----7h8-----5h7-|
|-0-0---0---0-------0-0----0---0-------7-7---7---7-------5-5-----0-0-----|

|--------|
|--------|
|--------|
|--------|
|-0000-0-|
|-0000-0-|
Tap to rate this tab
# A B C D E F G H I J K L M N O P Q R S T U V W X Y Z