Sea Of Treachery - I Never Was A White Picket Fence Sorta Guy tab

So I have been looking all over for tabs to this one song. I've only managed to 
find a few just for the 1st guitar so I thought I'd write my own version with both guitars.
if you have any corrections to make please provide them. thanks.


Song: I Never Was A White Picket Fence Sorta Guy
Artist: Sea of Treachery
Album: At Daggers Drawn
Tuning: Drop C


p - pull-off
h - hammer-on
* - mute/pinch harmonic
" - tremolo picking
/ - slide
~ - vibrato(hold note)


Intro:

Guitar 1
|------------------------------------------------------------------------|
|------------------------------------------------------------------------|
|------------------------------------------------------------------------|
|------------------------------------------------------------------------|
|-----7---8---7h8p7-----10---8---7h8p7-----8---7---7h8p7-----8---7---5---|
|-0-0---0---0-------0-0----0---0-------7-7---7---7-------5-5---5---5-----| 	
  * *   *   *       * *    *   *       * *   *   *       * *   *   *

|------------------------------------------------------------------------|
|------------------------------------------------------------------------|
|------------------------------------------------------------------------|
|------------------------------------------------------------------------|
|-----7---8---7h8p7-----10---8---7h8p7-----8---7---7h8p7-----5h7-----3h5-|
|-0-0---0---0-------0-0----0---0-------7-7---7---7-------5-5-----0-0-----|
  * *   *   *       * *    *   *       * *   *   *       * *     * *


Guitar 2
(play open for the first part of the riff then come in playing higher parts)
|----|
|----|
|----|
|-0~-|
|-0~-|
|-0~-|

|-----------------------------------------------------------------------|
|-----------------------------------------------------------------------|
|-----------------------------------------------------------------------|
|-----5---7---5h7p5-----8---7---5h7p5-----7---5---5h7p5-----------------|
|-------------------------------------5-5---5---5-----------5h7-----3h5-|
|-0-0---0---0-------0-0---0---0-------------------------5-5-----0-0-----|
  * *   *   *       * *   *   *       * *   *   *       * *     * *


Verse 1:

Guitar 1
(play x2)
|------------------------------------------------------------------------|
|------------------------------------------------------------------------|
|------------------------------------------------------------------------|
|------------------------------------------------------------------------|
|-----7---8---7h8p7-----10---8---7h8p7-----8---7---7h8p7-----8---7---5---|
|-0-0---0---0-------0-0----0---0-------7-7---7---7-------5-5---5---5-----|
  * *   *   *       * *    *   *       * *   *   *       * *   *   *

|------------------------------------------------------------------------|
|------------------------------------------------------------------------|
|------------------------------------------------------------------------|
|------------------------------------------------------------------------|
|-----7---8---7h8p7-----10---8---7h8p7-----8---7---7h8p7-----5h7-----3h5-|
|-0-0---0---0-------0-0----0---0-------7-7---7---7-------5-5-----0-0-----|
  * *   *   *       * *    *   *       * *   *   *       * *     * *


Guitar 2
(play x2)
|-------------------------------------------------------------------------|
|-------------------------------------------------------------------------|
|-------------------------------------------------------------------------|
|-------------------------------------------------------------------------|
|-----7---8---7h8p7-----10---8---7h8p7-----8---7---7h8p7-----10---8---7---|
|-0-0---0---0-------0-0----0---0-------7-7---7---7-------5-5----5---5-----|
  * *   *   *       * *    *   *       * *   *   *       * *    *   *

|------------------------------------------------------------------------|
|------------------------------------------------------------------------|
|------------------------------------------------------------------------|
|------------------------------------------------------------------------|
|-----7---8---7h8p7-----10---8---7h8p7-----8---7---7h8p7-----5h7-----3h5-|
|-0-0---0---0-------0-0----0---0-------7-7---7---7-------5-5-----0-0-----|
  * *   *   *       * *    *   *       * *   *   *       * *     * *


Guitar 1
|-----------------------------------------------------------------|
|-----------------------------------------------------------------|
|-----------------------------------------------------------------|
|-----------------------------------------------------------------| x2
|-----7---8-----8---10---8---7~-------7---8-----7"-8"-7"-5"-------|
|-0-0---0---0-0---0----0---0-----0-0---0----0-0-------------------|
  * *   *   * *   *    *   *     * *   *    * *

|-----------------------------------------------------------------|
|-----------------------------------------------------------------|
|-----------------------------------------------------------------|
|-----------------------------------------------------------------| x2
|-----7"-8-----8"-10"-8"-7"-----7"-8-----7"-8"-7"-5"--------------|
|-0-0------0-0--------------0-0------0-0--------------------------|
  * *      * *              * *      * *


Guitar 2
|-----------------------------------------------------------------|
|-----------------------------------------------------------------|
|-----------------------------------------------------------------|
|-----------------------------------------------5"-7"-5"-3"-------| x2
|-----7---8-----8---10---8---7~-------7---8-----------------------|
|-0-0---0---0-0---0----0---0-----0-0---0----0-0-------------------|
  * *   *   * *   *    *   *     * *   *    * *

|-----------------------------------------------------------------|
|-----------------------------------------------------------------|
|-----------------------------------------------------------------|
|-----------------------------------------------------------------| x2
|-0-0-0----0000-------------0-0-0----0000-------------------------|
|-0-0-0----0000-------------0-0-0----0000-------------------------|
  * * *    ****             * * *    ****


Guitar 1
(play x2)
|------------------------------------------------------------------------|
|------------------------------------------------------------------------|
|------------------------------------------------------------------------|
|------------------------------------------------------------------------|
|-----7---8---7h8p7-----10---8---7h8p7-----8---7---7h8p7-----8---7---5---|
|-0-0---0---0-------0-0----0---0-------7-7---7---7-------5-5---5---5-----|
  * *   *   *       * *    *   *       * *   *   *       * *   *   *

|------------------------------------------------------------------------|
|------------------------------------------------------------------------|
|------------------------------------------------------------------------|
|------------------------------------------------------------------------|
|-----7---8---7h8p7-----10---8---7h8p7-----8---7---7h8p7-----5h7-----3h5-|
|-0-0---0---0-------0-0----0---0-------7-7---7---7-------5-5-----0-0-----|
  * *   *   *       * *    *   *       * *   *   *       * *     * *


Guitar 2
|-------------------------------------------------------------------------|
|-------------------------------------------------------------------------|
|-------------------------------------------------------------------------|
|-------------------------------------------------------------------------|
|-----7---8---7h8p7-----10---8---7h8p7-----8---7---7h8p7-----10---8---7---|
|-0-0---0---0-------0-0----0---0-------7-7---7---7-------5-5----5---5-----|
  * *   *   *       * *    *   *       * *   *   *       * *    *   *

|-------------------------------------------------------------------------|
|-------------------------------------------------------------------------|
|-------------------------------------------------------------------------|
|-------------------------------------------------------------------------|
|-----7---8---7h8p7-----10---8---7h8p7-----8---7---7h8p7------5h7-----3h5-|
|-0-0---0---0-------0-0----0---0-------7-7---7---7--------5-5-----0-0-----|
  * *   *   *       * *    *   *       * *   *   *        * *     * *

|-------------------------------------------------------------------------|
|-------------------------------------------------------------------------|
|-------------------------------------------------------------------------|
|-------------------------------------------------------------------------|
|-----7---8---7h8p7-----10---8---7h8p7-----8---7---7h8p7-----10---8---7---|
|-0-0---0---0-------0-0----0---0-------7-7---7---7-------5-5----5---5-----| 
  * *   *   *       * *    *   *       * *   *   *       * *    *   *

|-----------------------------------------------------------------------|
|-----------------------------------------------------------------------|
|-----------------------------------------------------------------------|
|-----5---7---5h7p5-----8---7---5h7p5-----7---5---5h7p5-----------------|
|-------------------------------------5-5---5---5-----------5h7-----3h5-|
|-0-0---0---0-------0-0---0---0-------------------------5-5-----0-0-----|
  * *   *   *       * *   *   *       * *   *   *       * *     * *


Breakdown 1:

Guitars 1 & 2
|-----------------------------------------------------------------|
|-----------------------------------------------------------------|
|-----------------------------------------------------------------|
|-----------------------------------------------------------------|
|-0-0~-0~~-0~~~-0~~~~-0~~~~~-0~~~~~~-0~~~~~~~---------------------|
|-0-0~-0~~-0~~~-0~~~~-0~~~~~-0~~~~~~-0~~~~~~~---------------------|

|------------------------------------------------------------------|
|------------------------------------------------------------------|
|------------------------------------------------------------------|
|------------------------------------------------------------------|x4
|-0-0-0--000-000--0-0-0--0-0-0-0----0-0-0--000-000--0-0-0--0-0-0-0-|
|-0-0-0--000-000--0-0-0--0-0-0-0----0-0-0--000-000--0-0-0--0-0-0-0-|
  * * *  *** ***  * * *  * * * *    * * *  *** ***  * * *  * * * *                       


Verse 2:

Guitar 1
(play x2)
|-----------------------------------------------------------------|
|-----------------------------------------------------------------|
|-----------------------------------------------------------------|
|-----------------------------------------------------------------|
|-7h8-------------7h8-----5h7-----3h5-----------------------------|
|-----0-0-0-0-0-0-----0-0-----0-0-----0-0-0-0-0-0-----------------|
      * * * * * *     * *     * *     * * * * * *
								      
|-----------------------------------------------------------------|
|-----------------------------------------------------------------|
|-----------------------------------------------------------------|
|-----------------------------------------------------------------|
|-7h8-----5h7-----8h10-------------7h8-----5h7--8~~-5~~-----------|
|-----0-0-----0-0------0-0-0-0-0-0-----0-0------8~~-5~~-----------|
      * *     * *      * * * * * *     * *
									     
|-----------------------------------------------------------------|
|-----------------------------------------------------------------|
|-----------------------------------------------------------------| 
|-----------------------------------------------------------------|
|-7h8-------------7h8-----5h7-----3h5-----------------------------|
|-----0-0-0-0-0-0-----0-0-----0-0-----0-0-0-0-0-0-----------------|
      * * * * * *     * *     * *     * * * * * *


|-----------------------------------------------------------------|
|-----------------------------------------------------------------|
|-----------------------------------------------------------------|
|------------------------------------------------------7*---------|
|-7h8-----5h7-----8h10-------------7h8-----5h7--8~~-5~------------|
|-----0-0-----0-0------0-0-0-0-0-0-----0-0------8~~-5~------------|
      * *     * *      * * * * * *     * *


Guitar 2:
(play x2)
|-----------------------------------------------------------------|
|-----------------------------------------------------------------|
|-----------------------------------------------------------------|
|-----------------------------------------------------------------|
|-7h8-------------7h8-----5h7-----3h5-----------------------------|
|-----0-0-0-0-0-0-----0-0-----0-0-----0-0-0-0-0-0-----------------|
      * * * * * *     * *     * *     * * * * * *
								      
|-----------------------------------------------------------------|
|-----------------------------------------------------------------|
|-----------------------------------------------------------------|
|-5h7-----3h5-----7h8---------------------------------------------|
|---------------------------------7h8-----5h7--8~~-5~~------------|
|-----0-0-----0-0-----0-0-0-0-0-0-----0-0------8~~-5~~------------|
      * *     * *     * * * * * *     * *

|-----------------------------------------------------------------|
|-----------------------------------------------------------------|
|-----------------------------------------------------------------| 
|-----------------------------------------------------------------|
|-7h8-------------7h8-----5h7-----3h5-----------------------------|
|-----0-0-0-0-0-0-----0-0-----0-0-----0-0-0-0-0-0-----------------|
      * * * * * *     * *     * *     * * * * * *

|-----------------------------------------------------------------|
|-----------------------------------------------------------------|
|-----------------------------------------------------------------|
|-5h7-----3h5-----7h8----------------------------------7*---------|
|---------------------------------7h8-----5h7--8~~-5~-------------|
|-----0-0-----0-0-----0-0-0-0-0-0-----0-0------8~~-5~-------------|
      * *     * *     * * * * * *     * *


Guitar 1 & 2
(Guitar 2 comes in second time with a pick slide and continue to play riff again x2)
|-----------------------------------------------------------------|
|-----------------------------------------------------------------|
|-----------------------------------------------------------------|
|-----------------------------------------------------------------|
|-0---------------------------0-----------------------------------|
|-0-0-0-3p0-0-0-3p0-0-0-5h6p0-0-0-0-0-3p0-0-0-3p0-0-0-5h6p0-------|
    * *     * *     * *         * * *     * *     * *

|-----------------------------------------------------------------|
|-----------------------------------------------------------------|
|-----------------------------------------------------------------|
|-----------------------------------------------------------------|
|-0---------------------------6~-6--6-6--3~-3--3/5----------------|
|-0-0-0-3p0-0-0-3p0-0-0-5h6p0-6~-6--6-6--3~-3--3/5----------------|
    * *     * *     * *


Bridge:

Guitar 1
|------------------------------------------------------------------------|
|------------------------------------------------------------------------|
|------------------------------------------------------------------------|
|--------------------------------------------------------------------7*--|
|-----7---8---7h8p7-----10---8---7h8p7-----8---7---7h8p7-----8---7-------|
|-0-0---0---0-------0-0----0---0-------7-7---7---7-------5-5---5---5-----|
  * *   *   *       * *    *   *       * *   *   *       * *   *   *
									     	
|------------------------------------------------------------------------|
|------------------------------------------------------------------------|
|------------------------------------------------------------------------|
|------------------------------------------------------------------------|
|-----7---8---7h8p7-----10---8---7h8p7-----8---7---7h8p7-----5h7-----3h5-|
|-0-0---0---0-------0-0----0---0-------7-7---7---7-------5-5-----0-0-----|
  * *   *   *       * *    *   *       * *   *   *       * *     * *


Guitar 2
|-----------------------------------------------------------------------|
|-----------------------------------------------------------------------|
|-----------------------------------------------------------------------|
|-----5---7---5h7p5-----8---7---5h7p5-----7---5---5h7p5-------------7*--|
|-------------------------------------5-5---5---5-----------8---7-------|
|-0-0---0---0-------0-0---0---0-------------------------5-5---5---5-----|
  * *   *   *       * *   *   *       * *   *   *       * *   *   *
									     	
|-----------------------------------------------------------------------|
|-----------------------------------------------------------------------|
|-----------------------------------------------------------------------|
|-----5---7---5h7p5-----8---7---5h7p5-----7---5---5h7p5-----------------|
|-------------------------------------5-5---5---5-----------5h7-----3h5-|
|-0-0---0---0-------0-0---0---0-------------------------5-5-----0-0-----|
  * *   *   *       * *   *   *       * *   *   *       * *     * *


Breakdown 2:

Guitars 1 & 2
|-----------------------------------------------------------------|
|-----------------------------------------------------------------|
|-----------------------------------------------------------------|
|-----------------------------------------------------------------|
|-000000000--000000000--000000000--000000000----------------------|
|-000000000--000000000--000000000--000000000----------------------|
  *********  *********  *********  *********

|--------------------------------------------------------------------|
|--------------------------------------------------------------------|
|--------------------------------------------------------------------|
|--------------------------------------------------------------------| x4
|-0--000000000--000-0-0-000-0-0--000000000--000-0-0-000-0-0----------|
|-0--000000000--000-0-0-000-0-0--000000000--000-0-0-000-0-0----------|
  *  *********  *** * * *** * *  *********  *** * * *** * *                      


Outro:

Guitar 1
|------------------------------------------------------------------------|
|------------------------------------------------------------------------|
|------------------------------------------------------------------------|
|--------------------------------------------------------------------7*--|
|-----7---8---7h8p7-----10---8---7h8p7-----8---7---7h8p7-----8---7-------|
|-0-0---0---0-------0-0----0---0-------7-7---7---7-------5-5---5---5-----|
  * *   *   *       * *    *   *       * *   *   *       * *   *   *
									     	
|------------------------------------------------------------------------|
|------------------------------------------------------------------------|
|------------------------------------------------------------------------|
|------------------------------------------------------------------------|
|-----7---8---7h8p7-----10---8---7h8p7-----8---7---7h8p7-----57h8----3h5-|
|-0-0---0---0-------0-0----0---0-------7-7---7---7-------5-5-----0-0-----|
  * *   *   *       * *    *   *       * *   *   *       * *     * *


Guitar 2:

|-----------------------------------------------------------------|
|-----------------------------------------------------------------|
|-----------------------------------------------------------------|
|-----------------------------------------------------------------|x4
|-0-0-0----------0000-0-0----------7-7-7----------5-5-5--0000-0-0-|
|-0-0-0----------0000-0-0----------7-7-7----------5-5-5--0000-0-0-|
  * * *          **** * *          * * *          * * *  **** * *


Guitar 1 & 2
|--------|
|--------|
|--------|
|--------|
|-0000-0-|
|-0000-0-|
  **** *
Tap to rate this tab
 
# A B C D E F G H I J K L M N O P Q R S T U V W X Y Z